ISO-10303-21;
HEADER;
/* Generated by software containing ST-Developer
 * from STEP Tools, Inc. (www.steptools.com) 
 */

FILE_DESCRIPTION(
/* description */ (''),
/* implementation_level */ '2;1');

FILE_NAME(
/* name */ 
'W:\\Step files Subconn 11-11-2014\\Power\\Dummy connector (DC)\\DC1M.
stp',
/* time_stamp */ '2014-12-01T15:24:12+01:00',
/* author */ ('sh'),
/* organization */ (''),
/* preprocessor_version */ 'ST-DEVELOPER v15.2',
/* originating_system */ 'Autodesk Inventor 2014',
/* authorisation */ '');

FILE_SCHEMA (('AUTOMOTIVE_DESIGN { 1 0 10303 214 3 1 1 }'));
ENDSEC;

DATA;
#10=SHAPE_REPRESENTATION_RELATIONSHIP('SRR','None',#298,#11);
#11=ADVANCED_BREP_SHAPE_REPRESENTATION($,(#162),#289);
#12=STYLED_ITEM($,(#307),#152);
#13=STYLED_ITEM($,(#307),#153);
#14=STYLED_ITEM($,(#307),#154);
#15=STYLED_ITEM($,(#306),#162);
#16=PLANE($,#169);
#17=PLANE($,#179);
#18=PLANE($,#189);
#19=PLANE($,#190);
#20=CYLINDRICAL_SURFACE($,#167,10.);
#21=CYLINDRICAL_SURFACE($,#173,7.5);
#22=CYLINDRICAL_SURFACE($,#178,5.5);
#23=CYLINDRICAL_SURFACE($,#180,8.);
#24=CYLINDRICAL_SURFACE($,#184,13.);
#25=CYLINDRICAL_SURFACE($,#186,15.5);
#26=FACE_BOUND($,#53,.T.);
#27=FACE_BOUND($,#55,.T.);
#28=FACE_BOUND($,#58,.T.);
#29=FACE_BOUND($,#60,.T.);
#30=FACE_BOUND($,#62,.T.);
#31=FACE_BOUND($,#64,.T.);
#32=FACE_BOUND($,#67,.T.);
#33=FACE_BOUND($,#69,.T.);
#34=FACE_BOUND($,#71,.T.);
#35=FACE_BOUND($,#73,.T.);
#36=FACE_BOUND($,#74,.T.);
#37=FACE_BOUND($,#75,.T.);
#38=FACE_BOUND($,#76,.T.);
#39=FACE_BOUND($,#77,.T.);
#40=FACE_OUTER_BOUND($,#52,.T.);
#41=FACE_OUTER_BOUND($,#54,.T.);
#42=FACE_OUTER_BOUND($,#56,.T.);
#43=FACE_OUTER_BOUND($,#57,.T.);
#44=FACE_OUTER_BOUND($,#59,.T.);
#45=FACE_OUTER_BOUND($,#61,.T.);
#46=FACE_OUTER_BOUND($,#63,.T.);
#47=FACE_OUTER_BOUND($,#65,.T.);
#48=FACE_OUTER_BOUND($,#66,.T.);
#49=FACE_OUTER_BOUND($,#68,.T.);
#50=FACE_OUTER_BOUND($,#70,.T.);
#51=FACE_OUTER_BOUND($,#72,.T.);
#52=EDGE_LOOP($,(#117));
#53=EDGE_LOOP($,(#118));
#54=EDGE_LOOP($,(#119));
#55=EDGE_LOOP($,(#120));
#56=EDGE_LOOP($,(#121));
#57=EDGE_LOOP($,(#122));
#58=EDGE_LOOP($,(#123));
#59=EDGE_LOOP($,(#124));
#60=EDGE_LOOP($,(#125));
#61=EDGE_LOOP($,(#126));
#62=EDGE_LOOP($,(#127));
#63=EDGE_LOOP($,(#128));
#64=EDGE_LOOP($,(#129));
#65=EDGE_LOOP($,(#130));
#66=EDGE_LOOP($,(#131));
#67=EDGE_LOOP($,(#132));
#68=EDGE_LOOP($,(#133));
#69=EDGE_LOOP($,(#134));
#70=EDGE_LOOP($,(#135));
#71=EDGE_LOOP($,(#136));
#72=EDGE_LOOP($,(#137));
#73=EDGE_LOOP($,(#138));
#74=EDGE_LOOP($,(#139));
#75=EDGE_LOOP($,(#140));
#76=EDGE_LOOP($,(#141));
#77=EDGE_LOOP($,(#142));
#78=CIRCLE($,#165,10.);
#79=CIRCLE($,#166,8.);
#80=CIRCLE($,#168,10.);
#81=CIRCLE($,#171,5.5);
#82=CIRCLE($,#172,7.5);
#83=CIRCLE($,#174,7.5);
#84=CIRCLE($,#176,4.5);
#85=CIRCLE($,#177,5.5);
#86=CIRCLE($,#181,8.);
#87=CIRCLE($,#183,13.);
#88=CIRCLE($,#185,13.);
#89=CIRCLE($,#187,15.5);
#90=CIRCLE($,#188,15.5);
#91=VERTEX_POINT($,#249);
#92=VERTEX_POINT($,#251);
#93=VERTEX_POINT($,#254);
#94=VERTEX_POINT($,#258);
#95=VERTEX_POINT($,#260);
#96=VERTEX_POINT($,#263);
#97=VERTEX_POINT($,#266);
#98=VERTEX_POINT($,#268);
#99=VERTEX_POINT($,#273);
#100=VERTEX_POINT($,#276);
#101=VERTEX_POINT($,#279);
#102=VERTEX_POINT($,#282);
#103=VERTEX_POINT($,#284);
#104=EDGE_CURVE($,#91,#91,#78,.T.);
#105=EDGE_CURVE($,#92,#92,#79,.T.);
#106=EDGE_CURVE($,#93,#93,#80,.T.);
#107=EDGE_CURVE($,#94,#94,#81,.T.);
#108=EDGE_CURVE($,#95,#95,#82,.T.);
#109=EDGE_CURVE($,#96,#96,#83,.T.);
#110=EDGE_CURVE($,#97,#97,#84,.T.);
#111=EDGE_CURVE($,#98,#98,#85,.T.);
#112=EDGE_CURVE($,#99,#99,#86,.T.);
#113=EDGE_CURVE($,#100,#100,#87,.T.);
#114=EDGE_CURVE($,#101,#101,#88,.T.);
#115=EDGE_CURVE($,#102,#102,#89,.T.);
#116=EDGE_CURVE($,#103,#103,#90,.T.);
#117=ORIENTED_EDGE($,*,*,#104,.T.);
#118=ORIENTED_EDGE($,*,*,#105,.F.);
#119=ORIENTED_EDGE($,*,*,#106,.T.);
#120=ORIENTED_EDGE($,*,*,#104,.F.);
#121=ORIENTED_EDGE($,*,*,#106,.F.);
#122=ORIENTED_EDGE($,*,*,#107,.T.);
#123=ORIENTED_EDGE($,*,*,#108,.T.);
#124=ORIENTED_EDGE($,*,*,#109,.F.);
#125=ORIENTED_EDGE($,*,*,#108,.F.);
#126=ORIENTED_EDGE($,*,*,#110,.T.);
#127=ORIENTED_EDGE($,*,*,#111,.T.);
#128=ORIENTED_EDGE($,*,*,#107,.F.);
#129=ORIENTED_EDGE($,*,*,#111,.F.);
#130=ORIENTED_EDGE($,*,*,#110,.F.);
#131=ORIENTED_EDGE($,*,*,#105,.T.);
#132=ORIENTED_EDGE($,*,*,#112,.F.);
#133=ORIENTED_EDGE($,*,*,#113,.F.);
#134=ORIENTED_EDGE($,*,*,#112,.T.);
#135=ORIENTED_EDGE($,*,*,#113,.T.);
#136=ORIENTED_EDGE($,*,*,#114,.F.);
#137=ORIENTED_EDGE($,*,*,#115,.T.);
#138=ORIENTED_EDGE($,*,*,#116,.T.);
#139=ORIENTED_EDGE($,*,*,#109,.T.);
#140=ORIENTED_EDGE($,*,*,#116,.F.);
#141=ORIENTED_EDGE($,*,*,#114,.T.);
#142=ORIENTED_EDGE($,*,*,#115,.F.);
#143=CONICAL_SURFACE($,#164,9.,45.0000000000001);
#144=CONICAL_SURFACE($,#170,6.5,60.);
#145=CONICAL_SURFACE($,#175,5.,45.);
#146=CONICAL_SURFACE($,#182,13.,18.434948822922);
#147=ADVANCED_FACE($,(#40,#26),#143,.T.);
#148=ADVANCED_FACE($,(#41,#27),#20,.T.);
#149=ADVANCED_FACE($,(#42),#16,.F.);
#150=ADVANCED_FACE($,(#43,#28),#144,.T.);
#151=ADVANCED_FACE($,(#44,#29),#21,.T.);
#152=ADVANCED_FACE($,(#45,#30),#145,.T.);
#153=ADVANCED_FACE($,(#46,#31),#22,.T.);
#154=ADVANCED_FACE($,(#47),#17,.F.);
#155=ADVANCED_FACE($,(#48,#32),#23,.T.);
#156=ADVANCED_FACE($,(#49,#33),#146,.T.);
#157=ADVANCED_FACE($,(#50,#34),#24,.T.);
#158=ADVANCED_FACE($,(#51,#35),#25,.T.);
#159=ADVANCED_FACE($,(#36,#37),#18,.F.);
#160=ADVANCED_FACE($,(#38,#39),#19,.T.);
#161=CLOSED_SHELL($,(#147,#148,#149,#150,#151,#152,#153,#154,#155,#156,
#157,#158,#159,#160));
#162=MANIFOLD_SOLID_BREP('Solid2',#161);
#163=AXIS2_PLACEMENT_3D('placement',#247,#191,#192);
#164=AXIS2_PLACEMENT_3D($,#248,#193,#194);
#165=AXIS2_PLACEMENT_3D($,#250,#195,#196);
#166=AXIS2_PLACEMENT_3D($,#252,#197,#198);
#167=AXIS2_PLACEMENT_3D($,#253,#199,#200);
#168=AXIS2_PLACEMENT_3D($,#255,#201,#202);
#169=AXIS2_PLACEMENT_3D($,#256,#203,#204);
#170=AXIS2_PLACEMENT_3D($,#257,#205,#206);
#171=AXIS2_PLACEMENT_3D($,#259,#207,#208);
#172=AXIS2_PLACEMENT_3D($,#261,#209,#210);
#173=AXIS2_PLACEMENT_3D($,#262,#211,#212);
#174=AXIS2_PLACEMENT_3D($,#264,#213,#214);
#175=AXIS2_PLACEMENT_3D($,#265,#215,#216);
#176=AXIS2_PLACEMENT_3D($,#267,#217,#218);
#177=AXIS2_PLACEMENT_3D($,#269,#219,#220);
#178=AXIS2_PLACEMENT_3D($,#270,#221,#222);
#179=AXIS2_PLACEMENT_3D($,#271,#223,#224);
#180=AXIS2_PLACEMENT_3D($,#272,#225,#226);
#181=AXIS2_PLACEMENT_3D($,#274,#227,#228);
#182=AXIS2_PLACEMENT_3D($,#275,#229,#230);
#183=AXIS2_PLACEMENT_3D($,#277,#231,#232);
#184=AXIS2_PLACEMENT_3D($,#278,#233,#234);
#185=AXIS2_PLACEMENT_3D($,#280,#235,#236);
#186=AXIS2_PLACEMENT_3D($,#281,#237,#238);
#187=AXIS2_PLACEMENT_3D($,#283,#239,#240);
#188=AXIS2_PLACEMENT_3D($,#285,#241,#242);
#189=AXIS2_PLACEMENT_3D($,#286,#243,#244);
#190=AXIS2_PLACEMENT_3D($,#287,#245,#246);
#191=DIRECTION('axis',(0.,0.,1.));
#192=DIRECTION('refdir',(1.,0.,0.));
#193=DIRECTION('center_axis',(0.,0.,-1.));
#194=DIRECTION('ref_axis',(1.,0.,0.));
#195=DIRECTION('center_axis',(0.,0.,1.));
#196=DIRECTION('ref_axis',(1.,0.,0.));
#197=DIRECTION('center_axis',(0.,0.,1.));
#198=DIRECTION('ref_axis',(1.,0.,0.));
#199=DIRECTION('center_axis',(0.,0.,-1.));
#200=DIRECTION('ref_axis',(1.,0.,0.));
#201=DIRECTION('center_axis',(0.,0.,1.));
#202=DIRECTION('ref_axis',(1.,0.,0.));
#203=DIRECTION('center_axis',(0.,0.,1.));
#204=DIRECTION('ref_axis',(1.,0.,0.));
#205=DIRECTION('center_axis',(0.,0.,-1.));
#206=DIRECTION('ref_axis',(-1.,0.,0.));
#207=DIRECTION('center_axis',(0.,0.,-1.));
#208=DIRECTION('ref_axis',(-1.,0.,0.));
#209=DIRECTION('center_axis',(0.,0.,1.));
#210=DIRECTION('ref_axis',(-1.,0.,0.));
#211=DIRECTION('center_axis',(0.,0.,1.));
#212=DIRECTION('ref_axis',(-1.,0.,0.));
#213=DIRECTION('center_axis',(0.,0.,-1.));
#214=DIRECTION('ref_axis',(-1.,0.,0.));
#215=DIRECTION('center_axis',(0.,0.,-1.));
#216=DIRECTION('ref_axis',(-1.,0.,0.));
#217=DIRECTION('center_axis',(0.,0.,-1.));
#218=DIRECTION('ref_axis',(-1.,0.,0.));
#219=DIRECTION('center_axis',(0.,0.,1.));
#220=DIRECTION('ref_axis',(-1.,0.,0.));
#221=DIRECTION('center_axis',(0.,0.,1.));
#222=DIRECTION('ref_axis',(-1.,0.,0.));
#223=DIRECTION('center_axis',(0.,0.,-1.));
#224=DIRECTION('ref_axis',(-1.,0.,0.));
#225=DIRECTION('center_axis',(0.,0.,-1.));
#226=DIRECTION('ref_axis',(1.,0.,0.));
#227=DIRECTION('center_axis',(0.,0.,1.));
#228=DIRECTION('ref_axis',(1.,0.,0.));
#229=DIRECTION('center_axis',(0.,0.,1.));
#230=DIRECTION('ref_axis',(1.,0.,0.));
#231=DIRECTION('center_axis',(0.,0.,1.));
#232=DIRECTION('ref_axis',(1.,0.,0.));
#233=DIRECTION('center_axis',(0.,0.,-1.));
#234=DIRECTION('ref_axis',(1.,0.,0.));
#235=DIRECTION('center_axis',(0.,0.,1.));
#236=DIRECTION('ref_axis',(1.,0.,0.));
#237=DIRECTION('center_axis',(0.,0.,-1.));
#238=DIRECTION('ref_axis',(-1.,0.,0.));
#239=DIRECTION('center_axis',(0.,0.,1.));
#240=DIRECTION('ref_axis',(-1.,0.,0.));
#241=DIRECTION('center_axis',(0.,0.,-1.));
#242=DIRECTION('ref_axis',(-1.,0.,0.));
#243=DIRECTION('center_axis',(0.,0.,-1.));
#244=DIRECTION('ref_axis',(-1.,0.,0.));
#245=DIRECTION('center_axis',(0.,0.,-1.));
#246=DIRECTION('ref_axis',(-1.,0.,0.));
#247=CARTESIAN_POINT('',(0.,0.,0.));
#248=CARTESIAN_POINT('Origin',(0.,0.,-127.));
#249=CARTESIAN_POINT('',(-10.,-1.22464679914735E-015,-128.));
#250=CARTESIAN_POINT('Origin',(0.,0.,-128.));
#251=CARTESIAN_POINT('',(-8.,9.79717439317883E-016,-126.));
#252=CARTESIAN_POINT('Origin',(0.,0.,-126.));
#253=CARTESIAN_POINT('Origin',(0.,0.,-126.));
#254=CARTESIAN_POINT('',(-10.,1.22464679914735E-015,-136.));
#255=CARTESIAN_POINT('Origin',(0.,0.,-136.));
#256=CARTESIAN_POINT('Origin',(0.,0.,-136.));
#257=CARTESIAN_POINT('Origin',(0.,0.,17.4226497308104));
#258=CARTESIAN_POINT('',(5.5,6.73555739531044E-016,18.));
#259=CARTESIAN_POINT('Origin',(0.,0.,18.));
#260=CARTESIAN_POINT('',(7.5,9.18485099360515E-016,16.8452994616207));
#261=CARTESIAN_POINT('Origin',(0.,0.,16.8452994616207));
#262=CARTESIAN_POINT('Origin',(0.,0.,0.));
#263=CARTESIAN_POINT('',(7.5,9.18485099360515E-016,0.));
#264=CARTESIAN_POINT('Origin',(0.,0.,0.));
#265=CARTESIAN_POINT('Origin',(0.,0.,30.5));
#266=CARTESIAN_POINT('',(4.5,-5.51091059616309E-016,31.));
#267=CARTESIAN_POINT('Origin',(0.,0.,31.));
#268=CARTESIAN_POINT('',(5.5,6.73555739531044E-016,30.));
#269=CARTESIAN_POINT('Origin',(0.,0.,30.));
#270=CARTESIAN_POINT('Origin',(0.,0.,18.));
#271=CARTESIAN_POINT('Origin',(0.,0.,31.));
#272=CARTESIAN_POINT('Origin',(0.,0.,-71.));
#273=CARTESIAN_POINT('',(8.,0.,-71.));
#274=CARTESIAN_POINT('Origin',(0.,0.,-71.));
#275=CARTESIAN_POINT('Origin',(0.,0.,-56.));
#276=CARTESIAN_POINT('',(-13.,1.59204083889156E-015,-56.));
#277=CARTESIAN_POINT('Origin',(0.,0.,-56.));
#278=CARTESIAN_POINT('Origin',(0.,0.,-19.));
#279=CARTESIAN_POINT('',(-13.,1.59204083889156E-015,-19.));
#280=CARTESIAN_POINT('Origin',(0.,0.,-19.));
#281=CARTESIAN_POINT('Origin',(0.,0.,0.));
#282=CARTESIAN_POINT('',(15.5,1.8982025386784E-015,-19.));
#283=CARTESIAN_POINT('Origin',(0.,0.,-19.));
#284=CARTESIAN_POINT('',(15.5,1.8982025386784E-015,0.));
#285=CARTESIAN_POINT('Origin',(0.,0.,0.));
#286=CARTESIAN_POINT('Origin',(0.,0.,0.));
#287=CARTESIAN_POINT('Origin',(0.,0.,-19.));
#288=UNCERTAINTY_MEASURE_WITH_UNIT(LENGTH_MEASURE(0.01),#290,
'DISTANCE_ACCURACY_VALUE',
'Maximum model space distance between geometric entities at asserted c
onnectivities');
#289=(
GEOMETRIC_REPRESENTATION_CONTEXT(3)
GLOBAL_UNCERTAINTY_ASSIGNED_CONTEXT((#288))
GLOBAL_UNIT_ASSIGNED_CONTEXT((#290,#293,#291))
REPRESENTATION_CONTEXT('','3D')
);
#290=(
LENGTH_UNIT()
NAMED_UNIT(*)
SI_UNIT(.MILLI.,.METRE.)
);
#291=(
NAMED_UNIT(*)
SI_UNIT($,.STERADIAN.)
SOLID_ANGLE_UNIT()
);
#292=DIMENSIONAL_EXPONENTS(0.,0.,0.,0.,0.,0.,0.);
#293=(
CONVERSION_BASED_UNIT('degree',#295)
NAMED_UNIT(#292)
PLANE_ANGLE_UNIT()
);
#294=(
NAMED_UNIT(*)
PLANE_ANGLE_UNIT()
SI_UNIT($,.RADIAN.)
);
#295=PLANE_ANGLE_MEASURE_WITH_UNIT(PLANE_ANGLE_MEASURE(0.01745329252),#294);
#296=SHAPE_DEFINITION_REPRESENTATION(#297,#298);
#297=PRODUCT_DEFINITION_SHAPE('',$,#300);
#298=SHAPE_REPRESENTATION('',(#163),#289);
#299=PRODUCT_DEFINITION_CONTEXT('3D Mechanical Parts',#303,'design');
#300=PRODUCT_DEFINITION('DC1M','DC1M',#301,#299);
#301=PRODUCT_DEFINITION_FORMATION('',$,#305);
#302=APPLICATION_PROTOCOL_DEFINITION('international standard',
'automotive_design',2009,#303);
#303=APPLICATION_CONTEXT(
'Core Data for Automotive Mechanical Design Process');
#304=PRODUCT_CONTEXT('3D Mechanical Parts',#303,'mechanical');
#305=PRODUCT('DC1M','DC1M',$,(#304));
#306=PRESENTATION_STYLE_ASSIGNMENT((#308));
#307=PRESENTATION_STYLE_ASSIGNMENT((#309));
#308=SURFACE_STYLE_USAGE(.BOTH.,#310);
#309=SURFACE_STYLE_USAGE(.BOTH.,#311);
#310=SURFACE_SIDE_STYLE($,(#312));
#311=SURFACE_SIDE_STYLE($,(#313));
#312=SURFACE_STYLE_FILL_AREA(#314);
#313=SURFACE_STYLE_FILL_AREA(#315);
#314=FILL_AREA_STYLE($,(#316));
#315=FILL_AREA_STYLE($,(#317));
#316=FILL_AREA_STYLE_COLOUR($,#318);
#317=FILL_AREA_STYLE_COLOUR($,#319);
#318=COLOUR_RGB('',0.309803921568627,0.309803921568627,0.309803921568627);
#319=COLOUR_RGB('',0.780392156862745,0.568627450980392,0.113725490196078);
ENDSEC;
END-ISO-10303-21;
