ISO-10303-21;
HEADER;
/* Generated by software containing ST-Developer
 * from STEP Tools, Inc. (www.steptools.com) 
 */

FILE_DESCRIPTION(
/* description */ (''),
/* implementation_level */ '2;1');

FILE_NAME(
/* name */ 'W:\\Step files Subconn 11-11-2014\\Ass\\Snap rings\\DLSC.s
tp',
/* time_stamp */ '2014-11-14T13:06:28+01:00',
/* author */ ('sh'),
/* organization */ (''),
/* preprocessor_version */ 'ST-DEVELOPER v15.2',
/* originating_system */ 'Autodesk Inventor 2014',
/* authorisation */ '');

FILE_SCHEMA (('AUTOMOTIVE_DESIGN { 1 0 10303 214 3 1 1 }'));
ENDSEC;

DATA;
#10=SHAPE_REPRESENTATION_RELATIONSHIP('SRR','None',#215,#11);
#11=ADVANCED_BREP_SHAPE_REPRESENTATION($,(#122),#206);
#12=STYLED_ITEM($,(#223),#122);
#13=FACE_BOUND($,#35,.T.);
#14=FACE_BOUND($,#38,.T.);
#15=FACE_BOUND($,#39,.T.);
#16=FACE_BOUND($,#40,.T.);
#17=CYLINDRICAL_SURFACE($,#129,25.);
#18=CYLINDRICAL_SURFACE($,#134,22.09);
#19=CIRCLE($,#127,22.09);
#20=CIRCLE($,#128,25.);
#21=CIRCLE($,#130,25.);
#22=CIRCLE($,#131,25.);
#23=CIRCLE($,#133,22.09);
#24=CIRCLE($,#135,22.09);
#25=FACE_OUTER_BOUND($,#31,.T.);
#26=FACE_OUTER_BOUND($,#32,.T.);
#27=FACE_OUTER_BOUND($,#33,.T.);
#28=FACE_OUTER_BOUND($,#34,.T.);
#29=FACE_OUTER_BOUND($,#36,.T.);
#30=FACE_OUTER_BOUND($,#37,.T.);
#31=EDGE_LOOP($,(#81,#82,#83,#84));
#32=EDGE_LOOP($,(#85,#86,#87,#88));
#33=EDGE_LOOP($,(#89,#90,#91,#92));
#34=EDGE_LOOP($,(#93));
#35=EDGE_LOOP($,(#94,#95,#96,#97));
#36=EDGE_LOOP($,(#98,#99,#100,#101));
#37=EDGE_LOOP($,(#102,#103,#104,#105));
#38=EDGE_LOOP($,(#106));
#39=EDGE_LOOP($,(#107));
#40=EDGE_LOOP($,(#108));
#41=LINE($,#177,#49);
#42=LINE($,#179,#50);
#43=LINE($,#181,#51);
#44=LINE($,#182,#52);
#45=LINE($,#186,#53);
#46=LINE($,#188,#54);
#47=LINE($,#190,#55);
#48=LINE($,#191,#56);
#49=VECTOR($,#141,0.625);
#50=VECTOR($,#142,2.91);
#51=VECTOR($,#143,0.625);
#52=VECTOR($,#144,2.91);
#53=VECTOR($,#147,0.625);
#54=VECTOR($,#148,2.91004307999963);
#55=VECTOR($,#149,0.625);
#56=VECTOR($,#150,2.91004307999963);
#57=VERTEX_POINT($,#175);
#58=VERTEX_POINT($,#176);
#59=VERTEX_POINT($,#178);
#60=VERTEX_POINT($,#180);
#61=VERTEX_POINT($,#184);
#62=VERTEX_POINT($,#185);
#63=VERTEX_POINT($,#187);
#64=VERTEX_POINT($,#189);
#65=VERTEX_POINT($,#196);
#66=VERTEX_POINT($,#202);
#67=EDGE_CURVE($,#57,#58,#41,.T.);
#68=EDGE_CURVE($,#59,#57,#42,.T.);
#69=EDGE_CURVE($,#60,#59,#43,.T.);
#70=EDGE_CURVE($,#58,#60,#44,.T.);
#71=EDGE_CURVE($,#61,#62,#45,.T.);
#72=EDGE_CURVE($,#63,#61,#46,.T.);
#73=EDGE_CURVE($,#64,#63,#47,.T.);
#74=EDGE_CURVE($,#62,#64,#48,.T.);
#75=EDGE_CURVE($,#62,#57,#19,.T.);
#76=EDGE_CURVE($,#59,#64,#20,.T.);
#77=EDGE_CURVE($,#65,#65,#21,.T.);
#78=EDGE_CURVE($,#63,#60,#22,.T.);
#79=EDGE_CURVE($,#61,#58,#23,.T.);
#80=EDGE_CURVE($,#66,#66,#24,.T.);
#81=ORIENTED_EDGE($,*,*,#67,.F.);
#82=ORIENTED_EDGE($,*,*,#68,.F.);
#83=ORIENTED_EDGE($,*,*,#69,.F.);
#84=ORIENTED_EDGE($,*,*,#70,.F.);
#85=ORIENTED_EDGE($,*,*,#71,.F.);
#86=ORIENTED_EDGE($,*,*,#72,.F.);
#87=ORIENTED_EDGE($,*,*,#73,.F.);
#88=ORIENTED_EDGE($,*,*,#74,.F.);
#89=ORIENTED_EDGE($,*,*,#75,.F.);
#90=ORIENTED_EDGE($,*,*,#74,.T.);
#91=ORIENTED_EDGE($,*,*,#76,.F.);
#92=ORIENTED_EDGE($,*,*,#68,.T.);
#93=ORIENTED_EDGE($,*,*,#77,.F.);
#94=ORIENTED_EDGE($,*,*,#69,.T.);
#95=ORIENTED_EDGE($,*,*,#76,.T.);
#96=ORIENTED_EDGE($,*,*,#73,.T.);
#97=ORIENTED_EDGE($,*,*,#78,.T.);
#98=ORIENTED_EDGE($,*,*,#70,.T.);
#99=ORIENTED_EDGE($,*,*,#78,.F.);
#100=ORIENTED_EDGE($,*,*,#72,.T.);
#101=ORIENTED_EDGE($,*,*,#79,.T.);
#102=ORIENTED_EDGE($,*,*,#67,.T.);
#103=ORIENTED_EDGE($,*,*,#79,.F.);
#104=ORIENTED_EDGE($,*,*,#71,.T.);
#105=ORIENTED_EDGE($,*,*,#75,.T.);
#106=ORIENTED_EDGE($,*,*,#80,.F.);
#107=ORIENTED_EDGE($,*,*,#80,.T.);
#108=ORIENTED_EDGE($,*,*,#77,.T.);
#109=PLANE($,#124);
#110=PLANE($,#125);
#111=PLANE($,#126);
#112=PLANE($,#132);
#113=PLANE($,#136);
#114=ADVANCED_FACE($,(#25),#109,.F.);
#115=ADVANCED_FACE($,(#26),#110,.F.);
#116=ADVANCED_FACE($,(#27),#111,.T.);
#117=ADVANCED_FACE($,(#28,#13),#17,.T.);
#118=ADVANCED_FACE($,(#29),#112,.F.);
#119=ADVANCED_FACE($,(#30,#14),#18,.F.);
#120=ADVANCED_FACE($,(#15,#16),#113,.T.);
#121=CLOSED_SHELL($,(#114,#115,#116,#117,#118,#119,#120));
#122=MANIFOLD_SOLID_BREP('Solid2',#121);
#123=AXIS2_PLACEMENT_3D('placement',#173,#137,#138);
#124=AXIS2_PLACEMENT_3D($,#174,#139,#140);
#125=AXIS2_PLACEMENT_3D($,#183,#145,#146);
#126=AXIS2_PLACEMENT_3D($,#192,#151,#152);
#127=AXIS2_PLACEMENT_3D($,#193,#153,#154);
#128=AXIS2_PLACEMENT_3D($,#194,#155,#156);
#129=AXIS2_PLACEMENT_3D($,#195,#157,#158);
#130=AXIS2_PLACEMENT_3D($,#197,#159,#160);
#131=AXIS2_PLACEMENT_3D($,#198,#161,#162);
#132=AXIS2_PLACEMENT_3D($,#199,#163,#164);
#133=AXIS2_PLACEMENT_3D($,#200,#165,#166);
#134=AXIS2_PLACEMENT_3D($,#201,#167,#168);
#135=AXIS2_PLACEMENT_3D($,#203,#169,#170);
#136=AXIS2_PLACEMENT_3D($,#204,#171,#172);
#137=DIRECTION('axis',(0.,0.,1.));
#138=DIRECTION('refdir',(1.,0.,0.));
#139=DIRECTION('center_axis',(-0.914520027660079,-0.404540627142206,0.));
#140=DIRECTION('ref_axis',(0.,0.,1.));
#141=DIRECTION($,(0.,0.,1.));
#142=DIRECTION($,(0.404540627142206,-0.914520027660079,0.));
#143=DIRECTION($,(0.,0.,-1.));
#144=DIRECTION($,(-0.404540627142206,0.914520027660079,0.));
#145=DIRECTION('center_axis',(0.835819596659393,-0.549004191095232,0.));
#146=DIRECTION('ref_axis',(0.,0.,-1.));
#147=DIRECTION($,(0.,0.,-1.));
#148=DIRECTION($,(-0.549004191095232,-0.835819596659393,0.));
#149=DIRECTION($,(0.,0.,1.));
#150=DIRECTION($,(0.549004191095232,0.835819596659393,0.));
#151=DIRECTION('center_axis',(0.,0.,1.));
#152=DIRECTION('ref_axis',(1.,0.,0.));
#153=DIRECTION('center_axis',(0.,0.,1.));
#154=DIRECTION('ref_axis',(-1.,0.,0.));
#155=DIRECTION('center_axis',(0.,0.,-1.));
#156=DIRECTION('ref_axis',(-1.,0.,0.));
#157=DIRECTION('center_axis',(0.,0.,1.));
#158=DIRECTION('ref_axis',(-1.,0.,0.));
#159=DIRECTION('center_axis',(0.,0.,-1.));
#160=DIRECTION('ref_axis',(-1.,0.,0.));
#161=DIRECTION('center_axis',(0.,0.,-1.));
#162=DIRECTION('ref_axis',(-1.,0.,0.));
#163=DIRECTION('center_axis',(0.,0.,-1.));
#164=DIRECTION('ref_axis',(-1.,0.,0.));
#165=DIRECTION('center_axis',(0.,0.,-1.));
#166=DIRECTION('ref_axis',(-1.,0.,0.));
#167=DIRECTION('center_axis',(0.,0.,1.));
#168=DIRECTION('ref_axis',(-1.,0.,0.));
#169=DIRECTION('center_axis',(0.,0.,1.));
#170=DIRECTION('ref_axis',(-1.,0.,0.));
#171=DIRECTION('center_axis',(0.,0.,-1.));
#172=DIRECTION('ref_axis',(-1.,0.,0.));
#173=CARTESIAN_POINT('',(0.,0.,0.));
#174=CARTESIAN_POINT('Origin',(-10.1135156785551,22.863000691502,1.25));
#175=CARTESIAN_POINT('',(-8.93630245357132,20.2017474110111,0.625));
#176=CARTESIAN_POINT('',(-8.93630245357132,20.2017474110111,1.25));
#177=CARTESIAN_POINT($,(-8.93630245357132,20.2017474110111,0.));
#178=CARTESIAN_POINT('',(-10.1135156785551,22.863000691502,0.625));
#179=CARTESIAN_POINT($,(-10.1135156785551,22.863000691502,0.625));
#180=CARTESIAN_POINT('',(-10.1135156785551,22.863000691502,1.25));
#181=CARTESIAN_POINT($,(-10.1135156785551,22.863000691502,0.));
#182=CARTESIAN_POINT($,(-5.05675783927757,11.431500345751,1.25));
#183=CARTESIAN_POINT('Origin',(-0.0615672425794573,0.139181265388526,1.25));
#184=CARTESIAN_POINT('',(12.0204229720755,18.5331468340484,1.25));
#185=CARTESIAN_POINT('',(12.0204229720755,18.5331468340484,0.625));
#186=CARTESIAN_POINT($,(12.0204229720755,18.5331468340484,0.));
#187=CARTESIAN_POINT('',(13.618048819263,20.9654178674352,1.25));
#188=CARTESIAN_POINT($,(-0.0842218332415964,0.104691272166546,1.25));
#189=CARTESIAN_POINT('',(13.618048819263,20.9654178674352,0.625));
#190=CARTESIAN_POINT($,(13.618048819263,20.9654178674352,0.));
#191=CARTESIAN_POINT($,(-0.0615672425794573,0.139181265388526,0.625));
#192=CARTESIAN_POINT('Origin',(1.20040676624072,15.2464471168722,0.625));
#193=CARTESIAN_POINT('Origin',(0.,0.,0.625));
#194=CARTESIAN_POINT('Origin',(0.,0.,0.625));
#195=CARTESIAN_POINT('Origin',(0.,0.,0.));
#196=CARTESIAN_POINT('',(25.,3.06161699786838E-015,0.));
#197=CARTESIAN_POINT('Origin',(0.,0.,0.));
#198=CARTESIAN_POINT('Origin',(0.,0.,1.25));
#199=CARTESIAN_POINT('Origin',(0.,0.,1.25));
#200=CARTESIAN_POINT('Origin',(0.,0.,1.25));
#201=CARTESIAN_POINT('Origin',(0.,0.,0.));
#202=CARTESIAN_POINT('',(22.09,2.7052447793165E-015,0.));
#203=CARTESIAN_POINT('Origin',(0.,0.,0.));
#204=CARTESIAN_POINT('Origin',(0.,0.,0.));
#205=UNCERTAINTY_MEASURE_WITH_UNIT(LENGTH_MEASURE(0.01),#207,
'DISTANCE_ACCURACY_VALUE',
'Maximum model space distance between geometric entities at asserted c
onnectivities');
#206=(
GEOMETRIC_REPRESENTATION_CONTEXT(3)
GLOBAL_UNCERTAINTY_ASSIGNED_CONTEXT((#205))
GLOBAL_UNIT_ASSIGNED_CONTEXT((#207,#210,#208))
REPRESENTATION_CONTEXT('','3D')
);
#207=(
LENGTH_UNIT()
NAMED_UNIT(*)
SI_UNIT(.MILLI.,.METRE.)
);
#208=(
NAMED_UNIT(*)
SI_UNIT($,.STERADIAN.)
SOLID_ANGLE_UNIT()
);
#209=DIMENSIONAL_EXPONENTS(0.,0.,0.,0.,0.,0.,0.);
#210=(
CONVERSION_BASED_UNIT('degree',#212)
NAMED_UNIT(#209)
PLANE_ANGLE_UNIT()
);
#211=(
NAMED_UNIT(*)
PLANE_ANGLE_UNIT()
SI_UNIT($,.RADIAN.)
);
#212=PLANE_ANGLE_MEASURE_WITH_UNIT(PLANE_ANGLE_MEASURE(0.01745329252),#211);
#213=SHAPE_DEFINITION_REPRESENTATION(#214,#215);
#214=PRODUCT_DEFINITION_SHAPE('',$,#217);
#215=SHAPE_REPRESENTATION('',(#123),#206);
#216=PRODUCT_DEFINITION_CONTEXT('3D Mechanical Parts',#220,'design');
#217=PRODUCT_DEFINITION('DLSC','DLSC',#218,#216);
#218=PRODUCT_DEFINITION_FORMATION('',$,#222);
#219=APPLICATION_PROTOCOL_DEFINITION('international standard',
'automotive_design',2009,#220);
#220=APPLICATION_CONTEXT(
'Core Data for Automotive Mechanical Design Process');
#221=PRODUCT_CONTEXT('3D Mechanical Parts',#220,'mechanical');
#222=PRODUCT('DLSC','DLSC',$,(#221));
#223=PRESENTATION_STYLE_ASSIGNMENT((#224));
#224=SURFACE_STYLE_USAGE(.BOTH.,#225);
#225=SURFACE_SIDE_STYLE($,(#226));
#226=SURFACE_STYLE_FILL_AREA(#227);
#227=FILL_AREA_STYLE($,(#228));
#228=FILL_AREA_STYLE_COLOUR($,#229);
#229=COLOUR_RGB('',0.847058823529412,0.83921568627451,0.83921568627451);
ENDSEC;
END-ISO-10303-21;
