ISO-10303-21;
HEADER;
/* Generated by software containing ST-Developer
 * from STEP Tools, Inc. (www.steptools.com) 
 */

FILE_DESCRIPTION(
/* description */ (''),
/* implementation_level */ '2;1');

FILE_NAME(
/* name */ 
'W:\\Step files Subconn 11-11-2014\\Power\\Inline (IL)\\IL1M.stp',
/* time_stamp */ '2014-12-01T15:25:37+01:00',
/* author */ ('sh'),
/* organization */ (''),
/* preprocessor_version */ 'ST-DEVELOPER v15.2',
/* originating_system */ 'Autodesk Inventor 2014',
/* authorisation */ '');

FILE_SCHEMA (('AUTOMOTIVE_DESIGN { 1 0 10303 214 3 1 1 }'));
ENDSEC;

DATA;
#10=SHAPE_REPRESENTATION_RELATIONSHIP('SRR','None',#258,#11);
#11=ADVANCED_BREP_SHAPE_REPRESENTATION($,(#140),#249);
#12=PLANE($,#151);
#13=PLANE($,#155);
#14=PLANE($,#163);
#15=PLANE($,#164);
#16=STYLED_ITEM($,(#267),#129);
#17=STYLED_ITEM($,(#267),#130);
#18=STYLED_ITEM($,(#267),#131);
#19=STYLED_ITEM($,(#266),#140);
#20=CYLINDRICAL_SURFACE($,#145,7.5);
#21=CYLINDRICAL_SURFACE($,#150,5.5);
#22=CYLINDRICAL_SURFACE($,#152,8.);
#23=CYLINDRICAL_SURFACE($,#158,13.);
#24=CYLINDRICAL_SURFACE($,#160,15.5);
#25=FACE_BOUND($,#48,.T.);
#26=FACE_BOUND($,#50,.T.);
#27=FACE_BOUND($,#52,.T.);
#28=FACE_BOUND($,#54,.T.);
#29=FACE_BOUND($,#57,.T.);
#30=FACE_BOUND($,#60,.T.);
#31=FACE_BOUND($,#62,.T.);
#32=FACE_BOUND($,#64,.T.);
#33=FACE_BOUND($,#65,.T.);
#34=FACE_BOUND($,#66,.T.);
#35=FACE_BOUND($,#67,.T.);
#36=FACE_BOUND($,#68,.T.);
#37=FACE_OUTER_BOUND($,#47,.T.);
#38=FACE_OUTER_BOUND($,#49,.T.);
#39=FACE_OUTER_BOUND($,#51,.T.);
#40=FACE_OUTER_BOUND($,#53,.T.);
#41=FACE_OUTER_BOUND($,#55,.T.);
#42=FACE_OUTER_BOUND($,#56,.T.);
#43=FACE_OUTER_BOUND($,#58,.T.);
#44=FACE_OUTER_BOUND($,#59,.T.);
#45=FACE_OUTER_BOUND($,#61,.T.);
#46=FACE_OUTER_BOUND($,#63,.T.);
#47=EDGE_LOOP($,(#102));
#48=EDGE_LOOP($,(#103));
#49=EDGE_LOOP($,(#104));
#50=EDGE_LOOP($,(#105));
#51=EDGE_LOOP($,(#106));
#52=EDGE_LOOP($,(#107));
#53=EDGE_LOOP($,(#108));
#54=EDGE_LOOP($,(#109));
#55=EDGE_LOOP($,(#110));
#56=EDGE_LOOP($,(#111));
#57=EDGE_LOOP($,(#112));
#58=EDGE_LOOP($,(#113));
#59=EDGE_LOOP($,(#114));
#60=EDGE_LOOP($,(#115));
#61=EDGE_LOOP($,(#116));
#62=EDGE_LOOP($,(#117));
#63=EDGE_LOOP($,(#118));
#64=EDGE_LOOP($,(#119));
#65=EDGE_LOOP($,(#120));
#66=EDGE_LOOP($,(#121));
#67=EDGE_LOOP($,(#122));
#68=EDGE_LOOP($,(#123));
#69=CIRCLE($,#143,5.5);
#70=CIRCLE($,#144,7.5);
#71=CIRCLE($,#146,7.5);
#72=CIRCLE($,#148,4.5);
#73=CIRCLE($,#149,5.5);
#74=CIRCLE($,#153,8.);
#75=CIRCLE($,#154,8.);
#76=CIRCLE($,#157,13.);
#77=CIRCLE($,#159,13.);
#78=CIRCLE($,#161,15.5);
#79=CIRCLE($,#162,15.5);
#80=VERTEX_POINT($,#215);
#81=VERTEX_POINT($,#217);
#82=VERTEX_POINT($,#220);
#83=VERTEX_POINT($,#223);
#84=VERTEX_POINT($,#225);
#85=VERTEX_POINT($,#230);
#86=VERTEX_POINT($,#232);
#87=VERTEX_POINT($,#236);
#88=VERTEX_POINT($,#239);
#89=VERTEX_POINT($,#242);
#90=VERTEX_POINT($,#244);
#91=EDGE_CURVE($,#80,#80,#69,.T.);
#92=EDGE_CURVE($,#81,#81,#70,.T.);
#93=EDGE_CURVE($,#82,#82,#71,.T.);
#94=EDGE_CURVE($,#83,#83,#72,.T.);
#95=EDGE_CURVE($,#84,#84,#73,.T.);
#96=EDGE_CURVE($,#85,#85,#74,.T.);
#97=EDGE_CURVE($,#86,#86,#75,.T.);
#98=EDGE_CURVE($,#87,#87,#76,.T.);
#99=EDGE_CURVE($,#88,#88,#77,.T.);
#100=EDGE_CURVE($,#89,#89,#78,.T.);
#101=EDGE_CURVE($,#90,#90,#79,.T.);
#102=ORIENTED_EDGE($,*,*,#91,.T.);
#103=ORIENTED_EDGE($,*,*,#92,.T.);
#104=ORIENTED_EDGE($,*,*,#93,.F.);
#105=ORIENTED_EDGE($,*,*,#92,.F.);
#106=ORIENTED_EDGE($,*,*,#94,.T.);
#107=ORIENTED_EDGE($,*,*,#95,.T.);
#108=ORIENTED_EDGE($,*,*,#91,.F.);
#109=ORIENTED_EDGE($,*,*,#95,.F.);
#110=ORIENTED_EDGE($,*,*,#94,.F.);
#111=ORIENTED_EDGE($,*,*,#96,.T.);
#112=ORIENTED_EDGE($,*,*,#97,.F.);
#113=ORIENTED_EDGE($,*,*,#96,.F.);
#114=ORIENTED_EDGE($,*,*,#98,.F.);
#115=ORIENTED_EDGE($,*,*,#97,.T.);
#116=ORIENTED_EDGE($,*,*,#98,.T.);
#117=ORIENTED_EDGE($,*,*,#99,.F.);
#118=ORIENTED_EDGE($,*,*,#100,.T.);
#119=ORIENTED_EDGE($,*,*,#101,.T.);
#120=ORIENTED_EDGE($,*,*,#93,.T.);
#121=ORIENTED_EDGE($,*,*,#101,.F.);
#122=ORIENTED_EDGE($,*,*,#99,.T.);
#123=ORIENTED_EDGE($,*,*,#100,.F.);
#124=CONICAL_SURFACE($,#142,6.5,60.);
#125=CONICAL_SURFACE($,#147,5.,45.);
#126=CONICAL_SURFACE($,#156,13.,18.434948822922);
#127=ADVANCED_FACE($,(#37,#25),#124,.T.);
#128=ADVANCED_FACE($,(#38,#26),#20,.T.);
#129=ADVANCED_FACE($,(#39,#27),#125,.T.);
#130=ADVANCED_FACE($,(#40,#28),#21,.T.);
#131=ADVANCED_FACE($,(#41),#12,.F.);
#132=ADVANCED_FACE($,(#42,#29),#22,.T.);
#133=ADVANCED_FACE($,(#43),#13,.F.);
#134=ADVANCED_FACE($,(#44,#30),#126,.T.);
#135=ADVANCED_FACE($,(#45,#31),#23,.T.);
#136=ADVANCED_FACE($,(#46,#32),#24,.T.);
#137=ADVANCED_FACE($,(#33,#34),#14,.F.);
#138=ADVANCED_FACE($,(#35,#36),#15,.T.);
#139=CLOSED_SHELL($,(#127,#128,#129,#130,#131,#132,#133,#134,#135,#136,
#137,#138));
#140=MANIFOLD_SOLID_BREP('Solid2',#139);
#141=AXIS2_PLACEMENT_3D('placement',#213,#165,#166);
#142=AXIS2_PLACEMENT_3D($,#214,#167,#168);
#143=AXIS2_PLACEMENT_3D($,#216,#169,#170);
#144=AXIS2_PLACEMENT_3D($,#218,#171,#172);
#145=AXIS2_PLACEMENT_3D($,#219,#173,#174);
#146=AXIS2_PLACEMENT_3D($,#221,#175,#176);
#147=AXIS2_PLACEMENT_3D($,#222,#177,#178);
#148=AXIS2_PLACEMENT_3D($,#224,#179,#180);
#149=AXIS2_PLACEMENT_3D($,#226,#181,#182);
#150=AXIS2_PLACEMENT_3D($,#227,#183,#184);
#151=AXIS2_PLACEMENT_3D($,#228,#185,#186);
#152=AXIS2_PLACEMENT_3D($,#229,#187,#188);
#153=AXIS2_PLACEMENT_3D($,#231,#189,#190);
#154=AXIS2_PLACEMENT_3D($,#233,#191,#192);
#155=AXIS2_PLACEMENT_3D($,#234,#193,#194);
#156=AXIS2_PLACEMENT_3D($,#235,#195,#196);
#157=AXIS2_PLACEMENT_3D($,#237,#197,#198);
#158=AXIS2_PLACEMENT_3D($,#238,#199,#200);
#159=AXIS2_PLACEMENT_3D($,#240,#201,#202);
#160=AXIS2_PLACEMENT_3D($,#241,#203,#204);
#161=AXIS2_PLACEMENT_3D($,#243,#205,#206);
#162=AXIS2_PLACEMENT_3D($,#245,#207,#208);
#163=AXIS2_PLACEMENT_3D($,#246,#209,#210);
#164=AXIS2_PLACEMENT_3D($,#247,#211,#212);
#165=DIRECTION('axis',(0.,0.,1.));
#166=DIRECTION('refdir',(1.,0.,0.));
#167=DIRECTION('center_axis',(0.,0.,-1.));
#168=DIRECTION('ref_axis',(-1.,0.,0.));
#169=DIRECTION('center_axis',(0.,0.,-1.));
#170=DIRECTION('ref_axis',(-1.,0.,0.));
#171=DIRECTION('center_axis',(0.,0.,1.));
#172=DIRECTION('ref_axis',(-1.,0.,0.));
#173=DIRECTION('center_axis',(0.,0.,1.));
#174=DIRECTION('ref_axis',(-1.,0.,0.));
#175=DIRECTION('center_axis',(0.,0.,-1.));
#176=DIRECTION('ref_axis',(-1.,0.,0.));
#177=DIRECTION('center_axis',(0.,0.,-1.));
#178=DIRECTION('ref_axis',(-1.,0.,0.));
#179=DIRECTION('center_axis',(0.,0.,-1.));
#180=DIRECTION('ref_axis',(-1.,0.,0.));
#181=DIRECTION('center_axis',(0.,0.,1.));
#182=DIRECTION('ref_axis',(-1.,0.,0.));
#183=DIRECTION('center_axis',(0.,0.,1.));
#184=DIRECTION('ref_axis',(-1.,0.,0.));
#185=DIRECTION('center_axis',(0.,0.,-1.));
#186=DIRECTION('ref_axis',(-1.,0.,0.));
#187=DIRECTION('center_axis',(0.,0.,-1.));
#188=DIRECTION('ref_axis',(1.,0.,0.));
#189=DIRECTION('center_axis',(0.,0.,1.));
#190=DIRECTION('ref_axis',(1.,0.,0.));
#191=DIRECTION('center_axis',(0.,0.,1.));
#192=DIRECTION('ref_axis',(1.,0.,0.));
#193=DIRECTION('center_axis',(0.,0.,1.));
#194=DIRECTION('ref_axis',(1.,0.,0.));
#195=DIRECTION('center_axis',(0.,0.,1.));
#196=DIRECTION('ref_axis',(1.,0.,0.));
#197=DIRECTION('center_axis',(0.,0.,1.));
#198=DIRECTION('ref_axis',(1.,0.,0.));
#199=DIRECTION('center_axis',(0.,0.,-1.));
#200=DIRECTION('ref_axis',(1.,0.,0.));
#201=DIRECTION('center_axis',(0.,0.,1.));
#202=DIRECTION('ref_axis',(1.,0.,0.));
#203=DIRECTION('center_axis',(0.,0.,-1.));
#204=DIRECTION('ref_axis',(-1.,0.,0.));
#205=DIRECTION('center_axis',(0.,0.,1.));
#206=DIRECTION('ref_axis',(-1.,0.,0.));
#207=DIRECTION('center_axis',(0.,0.,-1.));
#208=DIRECTION('ref_axis',(-1.,0.,0.));
#209=DIRECTION('center_axis',(0.,0.,-1.));
#210=DIRECTION('ref_axis',(-1.,0.,0.));
#211=DIRECTION('center_axis',(0.,0.,-1.));
#212=DIRECTION('ref_axis',(-1.,0.,0.));
#213=CARTESIAN_POINT('',(0.,0.,0.));
#214=CARTESIAN_POINT('Origin',(0.,0.,17.4226497308104));
#215=CARTESIAN_POINT('',(5.5,6.73555739531044E-016,18.));
#216=CARTESIAN_POINT('Origin',(0.,0.,18.));
#217=CARTESIAN_POINT('',(7.5,9.18485099360515E-016,16.8452994616207));
#218=CARTESIAN_POINT('Origin',(0.,0.,16.8452994616207));
#219=CARTESIAN_POINT('Origin',(0.,0.,0.));
#220=CARTESIAN_POINT('',(7.5,9.18485099360515E-016,0.));
#221=CARTESIAN_POINT('Origin',(0.,0.,0.));
#222=CARTESIAN_POINT('Origin',(0.,0.,30.5));
#223=CARTESIAN_POINT('',(4.5,-5.51091059616309E-016,31.));
#224=CARTESIAN_POINT('Origin',(0.,0.,31.));
#225=CARTESIAN_POINT('',(5.5,6.73555739531044E-016,30.));
#226=CARTESIAN_POINT('Origin',(0.,0.,30.));
#227=CARTESIAN_POINT('Origin',(0.,0.,18.));
#228=CARTESIAN_POINT('Origin',(0.,0.,31.));
#229=CARTESIAN_POINT('Origin',(0.,0.,-71.));
#230=CARTESIAN_POINT('',(-8.,9.79717439317883E-016,-126.));
#231=CARTESIAN_POINT('Origin',(0.,0.,-126.));
#232=CARTESIAN_POINT('',(8.,0.,-71.));
#233=CARTESIAN_POINT('Origin',(0.,0.,-71.));
#234=CARTESIAN_POINT('Origin',(0.,0.,-126.));
#235=CARTESIAN_POINT('Origin',(0.,0.,-56.));
#236=CARTESIAN_POINT('',(-13.,1.59204083889156E-015,-56.));
#237=CARTESIAN_POINT('Origin',(0.,0.,-56.));
#238=CARTESIAN_POINT('Origin',(0.,0.,-19.));
#239=CARTESIAN_POINT('',(-13.,1.59204083889156E-015,-19.));
#240=CARTESIAN_POINT('Origin',(0.,0.,-19.));
#241=CARTESIAN_POINT('Origin',(0.,0.,0.));
#242=CARTESIAN_POINT('',(15.5,1.8982025386784E-015,-19.));
#243=CARTESIAN_POINT('Origin',(0.,0.,-19.));
#244=CARTESIAN_POINT('',(15.5,1.8982025386784E-015,0.));
#245=CARTESIAN_POINT('Origin',(0.,0.,0.));
#246=CARTESIAN_POINT('Origin',(0.,0.,0.));
#247=CARTESIAN_POINT('Origin',(0.,0.,-19.));
#248=UNCERTAINTY_MEASURE_WITH_UNIT(LENGTH_MEASURE(0.01),#250,
'DISTANCE_ACCURACY_VALUE',
'Maximum model space distance between geometric entities at asserted c
onnectivities');
#249=(
GEOMETRIC_REPRESENTATION_CONTEXT(3)
GLOBAL_UNCERTAINTY_ASSIGNED_CONTEXT((#248))
GLOBAL_UNIT_ASSIGNED_CONTEXT((#250,#253,#251))
REPRESENTATION_CONTEXT('','3D')
);
#250=(
LENGTH_UNIT()
NAMED_UNIT(*)
SI_UNIT(.MILLI.,.METRE.)
);
#251=(
NAMED_UNIT(*)
SI_UNIT($,.STERADIAN.)
SOLID_ANGLE_UNIT()
);
#252=DIMENSIONAL_EXPONENTS(0.,0.,0.,0.,0.,0.,0.);
#253=(
CONVERSION_BASED_UNIT('degree',#255)
NAMED_UNIT(#252)
PLANE_ANGLE_UNIT()
);
#254=(
NAMED_UNIT(*)
PLANE_ANGLE_UNIT()
SI_UNIT($,.RADIAN.)
);
#255=PLANE_ANGLE_MEASURE_WITH_UNIT(PLANE_ANGLE_MEASURE(0.01745329252),#254);
#256=SHAPE_DEFINITION_REPRESENTATION(#257,#258);
#257=PRODUCT_DEFINITION_SHAPE('',$,#260);
#258=SHAPE_REPRESENTATION('',(#141),#249);
#259=PRODUCT_DEFINITION_CONTEXT('3D Mechanical Parts',#263,'design');
#260=PRODUCT_DEFINITION('IL1M','IL1M',#261,#259);
#261=PRODUCT_DEFINITION_FORMATION('',$,#265);
#262=APPLICATION_PROTOCOL_DEFINITION('international standard',
'automotive_design',2009,#263);
#263=APPLICATION_CONTEXT(
'Core Data for Automotive Mechanical Design Process');
#264=PRODUCT_CONTEXT('3D Mechanical Parts',#263,'mechanical');
#265=PRODUCT('IL1M','IL1M',$,(#264));
#266=PRESENTATION_STYLE_ASSIGNMENT((#268));
#267=PRESENTATION_STYLE_ASSIGNMENT((#269));
#268=SURFACE_STYLE_USAGE(.BOTH.,#270);
#269=SURFACE_STYLE_USAGE(.BOTH.,#271);
#270=SURFACE_SIDE_STYLE($,(#272));
#271=SURFACE_SIDE_STYLE($,(#273));
#272=SURFACE_STYLE_FILL_AREA(#274);
#273=SURFACE_STYLE_FILL_AREA(#275);
#274=FILL_AREA_STYLE($,(#276));
#275=FILL_AREA_STYLE($,(#277));
#276=FILL_AREA_STYLE_COLOUR($,#278);
#277=FILL_AREA_STYLE_COLOUR($,#279);
#278=COLOUR_RGB('',0.309803921568627,0.309803921568627,0.309803921568627);
#279=COLOUR_RGB('',0.780392156862745,0.568627450980392,0.113725490196078);
ENDSEC;
END-ISO-10303-21;
