ISO-10303-21;
HEADER;
/* Generated by software containing ST-Developer
 * from STEP Tools, Inc. (www.steptools.com) 
 */

FILE_DESCRIPTION(
/* description */ (''),
/* implementation_level */ '2;1');

FILE_NAME(
/* name */ 
'W:\\Step files Subconn 11-11-2014\\Circular\\Inline (IL)\\ILM1M.stp',
/* time_stamp */ '2014-11-27T15:14:10+01:00',
/* author */ ('sh'),
/* organization */ (''),
/* preprocessor_version */ 'ST-DEVELOPER v15.2',
/* originating_system */ 'Autodesk Inventor 2014',
/* authorisation */ '');

FILE_SCHEMA (('AUTOMOTIVE_DESIGN { 1 0 10303 214 3 1 1 }'));
ENDSEC;

DATA;
#10=SHAPE_REPRESENTATION_RELATIONSHIP('SRR','None',#238,#11);
#11=ADVANCED_BREP_SHAPE_REPRESENTATION($,(#129),#229);
#12=PLANE($,#136);
#13=PLANE($,#146);
#14=PLANE($,#148);
#15=PLANE($,#151);
#16=CYLINDRICAL_SURFACE($,#134,1.25);
#17=CYLINDRICAL_SURFACE($,#139,2.25);
#18=CYLINDRICAL_SURFACE($,#144,1.75);
#19=CYLINDRICAL_SURFACE($,#149,4.);
#20=FACE_BOUND($,#41,.T.);
#21=FACE_BOUND($,#43,.T.);
#22=FACE_BOUND($,#46,.T.);
#23=FACE_BOUND($,#48,.T.);
#24=FACE_BOUND($,#50,.T.);
#25=FACE_BOUND($,#52,.T.);
#26=FACE_BOUND($,#54,.T.);
#27=FACE_BOUND($,#57,.T.);
#28=FACE_BOUND($,#58,.T.);
#29=FACE_BOUND($,#59,.T.);
#30=FACE_OUTER_BOUND($,#40,.T.);
#31=FACE_OUTER_BOUND($,#42,.T.);
#32=FACE_OUTER_BOUND($,#44,.T.);
#33=FACE_OUTER_BOUND($,#45,.T.);
#34=FACE_OUTER_BOUND($,#47,.T.);
#35=FACE_OUTER_BOUND($,#49,.T.);
#36=FACE_OUTER_BOUND($,#51,.T.);
#37=FACE_OUTER_BOUND($,#53,.T.);
#38=FACE_OUTER_BOUND($,#55,.T.);
#39=FACE_OUTER_BOUND($,#56,.T.);
#40=EDGE_LOOP($,(#90));
#41=EDGE_LOOP($,(#91));
#42=EDGE_LOOP($,(#92));
#43=EDGE_LOOP($,(#93));
#44=EDGE_LOOP($,(#94));
#45=EDGE_LOOP($,(#95));
#46=EDGE_LOOP($,(#96));
#47=EDGE_LOOP($,(#97));
#48=EDGE_LOOP($,(#98));
#49=EDGE_LOOP($,(#99));
#50=EDGE_LOOP($,(#100));
#51=EDGE_LOOP($,(#101));
#52=EDGE_LOOP($,(#102));
#53=EDGE_LOOP($,(#103));
#54=EDGE_LOOP($,(#104));
#55=EDGE_LOOP($,(#105));
#56=EDGE_LOOP($,(#106));
#57=EDGE_LOOP($,(#107));
#58=EDGE_LOOP($,(#108));
#59=EDGE_LOOP($,(#109));
#60=CIRCLE($,#132,0.75);
#61=CIRCLE($,#133,1.25);
#62=CIRCLE($,#135,1.25);
#63=CIRCLE($,#138,2.25);
#64=CIRCLE($,#140,2.25);
#65=CIRCLE($,#142,1.75);
#66=CIRCLE($,#143,2.75);
#67=CIRCLE($,#145,1.75);
#68=CIRCLE($,#147,4.);
#69=CIRCLE($,#150,4.);
#70=VERTEX_POINT($,#198);
#71=VERTEX_POINT($,#200);
#72=VERTEX_POINT($,#203);
#73=VERTEX_POINT($,#207);
#74=VERTEX_POINT($,#210);
#75=VERTEX_POINT($,#213);
#76=VERTEX_POINT($,#215);
#77=VERTEX_POINT($,#218);
#78=VERTEX_POINT($,#221);
#79=VERTEX_POINT($,#225);
#80=EDGE_CURVE($,#70,#70,#60,.T.);
#81=EDGE_CURVE($,#71,#71,#61,.T.);
#82=EDGE_CURVE($,#72,#72,#62,.T.);
#83=EDGE_CURVE($,#73,#73,#63,.T.);
#84=EDGE_CURVE($,#74,#74,#64,.T.);
#85=EDGE_CURVE($,#75,#75,#65,.T.);
#86=EDGE_CURVE($,#76,#76,#66,.T.);
#87=EDGE_CURVE($,#77,#77,#67,.T.);
#88=EDGE_CURVE($,#78,#78,#68,.T.);
#89=EDGE_CURVE($,#79,#79,#69,.T.);
#90=ORIENTED_EDGE($,*,*,#80,.T.);
#91=ORIENTED_EDGE($,*,*,#81,.T.);
#92=ORIENTED_EDGE($,*,*,#82,.F.);
#93=ORIENTED_EDGE($,*,*,#81,.F.);
#94=ORIENTED_EDGE($,*,*,#80,.F.);
#95=ORIENTED_EDGE($,*,*,#82,.T.);
#96=ORIENTED_EDGE($,*,*,#83,.T.);
#97=ORIENTED_EDGE($,*,*,#84,.F.);
#98=ORIENTED_EDGE($,*,*,#83,.F.);
#99=ORIENTED_EDGE($,*,*,#85,.T.);
#100=ORIENTED_EDGE($,*,*,#86,.T.);
#101=ORIENTED_EDGE($,*,*,#87,.T.);
#102=ORIENTED_EDGE($,*,*,#85,.F.);
#103=ORIENTED_EDGE($,*,*,#88,.T.);
#104=ORIENTED_EDGE($,*,*,#86,.F.);
#105=ORIENTED_EDGE($,*,*,#87,.F.);
#106=ORIENTED_EDGE($,*,*,#89,.T.);
#107=ORIENTED_EDGE($,*,*,#88,.F.);
#108=ORIENTED_EDGE($,*,*,#84,.T.);
#109=ORIENTED_EDGE($,*,*,#89,.F.);
#110=CONICAL_SURFACE($,#131,1.,45.0000000000001);
#111=CONICAL_SURFACE($,#137,1.75,45.);
#112=CONICAL_SURFACE($,#141,2.25,45.);
#113=STYLED_ITEM($,(#247),#117);
#114=STYLED_ITEM($,(#247),#118);
#115=STYLED_ITEM($,(#247),#119);
#116=STYLED_ITEM($,(#246),#129);
#117=ADVANCED_FACE($,(#30,#20),#110,.T.);
#118=ADVANCED_FACE($,(#31,#21),#16,.T.);
#119=ADVANCED_FACE($,(#32),#12,.F.);
#120=ADVANCED_FACE($,(#33,#22),#111,.T.);
#121=ADVANCED_FACE($,(#34,#23),#17,.T.);
#122=ADVANCED_FACE($,(#35,#24),#112,.T.);
#123=ADVANCED_FACE($,(#36,#25),#18,.T.);
#124=ADVANCED_FACE($,(#37,#26),#13,.T.);
#125=ADVANCED_FACE($,(#38),#14,.F.);
#126=ADVANCED_FACE($,(#39,#27),#19,.T.);
#127=ADVANCED_FACE($,(#28,#29),#15,.F.);
#128=CLOSED_SHELL($,(#117,#118,#119,#120,#121,#122,#123,#124,#125,#126,
#127));
#129=MANIFOLD_SOLID_BREP('Solid2',#128);
#130=AXIS2_PLACEMENT_3D('placement',#196,#152,#153);
#131=AXIS2_PLACEMENT_3D($,#197,#154,#155);
#132=AXIS2_PLACEMENT_3D($,#199,#156,#157);
#133=AXIS2_PLACEMENT_3D($,#201,#158,#159);
#134=AXIS2_PLACEMENT_3D($,#202,#160,#161);
#135=AXIS2_PLACEMENT_3D($,#204,#162,#163);
#136=AXIS2_PLACEMENT_3D($,#205,#164,#165);
#137=AXIS2_PLACEMENT_3D($,#206,#166,#167);
#138=AXIS2_PLACEMENT_3D($,#208,#168,#169);
#139=AXIS2_PLACEMENT_3D($,#209,#170,#171);
#140=AXIS2_PLACEMENT_3D($,#211,#172,#173);
#141=AXIS2_PLACEMENT_3D($,#212,#174,#175);
#142=AXIS2_PLACEMENT_3D($,#214,#176,#177);
#143=AXIS2_PLACEMENT_3D($,#216,#178,#179);
#144=AXIS2_PLACEMENT_3D($,#217,#180,#181);
#145=AXIS2_PLACEMENT_3D($,#219,#182,#183);
#146=AXIS2_PLACEMENT_3D($,#220,#184,#185);
#147=AXIS2_PLACEMENT_3D($,#222,#186,#187);
#148=AXIS2_PLACEMENT_3D($,#223,#188,#189);
#149=AXIS2_PLACEMENT_3D($,#224,#190,#191);
#150=AXIS2_PLACEMENT_3D($,#226,#192,#193);
#151=AXIS2_PLACEMENT_3D($,#227,#194,#195);
#152=DIRECTION('axis',(0.,0.,1.));
#153=DIRECTION('refdir',(1.,0.,0.));
#154=DIRECTION('center_axis',(0.,0.,-1.));
#155=DIRECTION('ref_axis',(-1.,0.,0.));
#156=DIRECTION('center_axis',(0.,0.,-1.));
#157=DIRECTION('ref_axis',(-1.,0.,0.));
#158=DIRECTION('center_axis',(0.,0.,1.));
#159=DIRECTION('ref_axis',(-1.,0.,0.));
#160=DIRECTION('center_axis',(0.,0.,1.));
#161=DIRECTION('ref_axis',(-1.,0.,0.));
#162=DIRECTION('center_axis',(0.,0.,-1.));
#163=DIRECTION('ref_axis',(-1.,0.,0.));
#164=DIRECTION('center_axis',(0.,0.,-1.));
#165=DIRECTION('ref_axis',(-1.,0.,0.));
#166=DIRECTION('center_axis',(0.,0.,-1.));
#167=DIRECTION('ref_axis',(-1.,0.,0.));
#168=DIRECTION('center_axis',(0.,0.,1.));
#169=DIRECTION('ref_axis',(-1.,0.,0.));
#170=DIRECTION('center_axis',(0.,0.,1.));
#171=DIRECTION('ref_axis',(-1.,0.,0.));
#172=DIRECTION('center_axis',(0.,0.,-1.));
#173=DIRECTION('ref_axis',(-1.,0.,0.));
#174=DIRECTION('center_axis',(0.,0.,1.));
#175=DIRECTION('ref_axis',(1.,0.,0.));
#176=DIRECTION('center_axis',(0.,0.,1.));
#177=DIRECTION('ref_axis',(1.,0.,0.));
#178=DIRECTION('center_axis',(0.,0.,-1.));
#179=DIRECTION('ref_axis',(1.,0.,0.));
#180=DIRECTION('center_axis',(0.,0.,-1.));
#181=DIRECTION('ref_axis',(1.,0.,0.));
#182=DIRECTION('center_axis',(0.,0.,1.));
#183=DIRECTION('ref_axis',(1.,0.,0.));
#184=DIRECTION('center_axis',(0.,0.,-1.));
#185=DIRECTION('ref_axis',(-1.,0.,0.));
#186=DIRECTION('center_axis',(0.,0.,-1.));
#187=DIRECTION('ref_axis',(-1.,0.,0.));
#188=DIRECTION('center_axis',(0.,0.,1.));
#189=DIRECTION('ref_axis',(1.,0.,0.));
#190=DIRECTION('center_axis',(0.,0.,1.));
#191=DIRECTION('ref_axis',(-1.,0.,0.));
#192=DIRECTION('center_axis',(0.,0.,-1.));
#193=DIRECTION('ref_axis',(-1.,0.,0.));
#194=DIRECTION('center_axis',(0.,0.,-1.));
#195=DIRECTION('ref_axis',(-1.,0.,0.));
#196=CARTESIAN_POINT('',(0.,0.,0.));
#197=CARTESIAN_POINT('Origin',(0.,0.,40.25));
#198=CARTESIAN_POINT('',(0.75,-9.18485099360515E-017,40.5));
#199=CARTESIAN_POINT('Origin',(0.,0.,40.5));
#200=CARTESIAN_POINT('',(1.25,1.53080849893419E-016,40.));
#201=CARTESIAN_POINT('Origin',(0.,0.,40.));
#202=CARTESIAN_POINT('Origin',(0.,0.,34.5));
#203=CARTESIAN_POINT('',(1.25,-1.53080849893419E-016,34.5));
#204=CARTESIAN_POINT('Origin',(0.,0.,34.5));
#205=CARTESIAN_POINT('Origin',(0.,0.,40.5));
#206=CARTESIAN_POINT('Origin',(0.,0.,34.));
#207=CARTESIAN_POINT('',(2.25,2.75545529808154E-016,33.5));
#208=CARTESIAN_POINT('Origin',(0.,0.,33.5));
#209=CARTESIAN_POINT('Origin',(0.,0.,22.));
#210=CARTESIAN_POINT('',(2.25,2.75545529808154E-016,22.));
#211=CARTESIAN_POINT('Origin',(0.,0.,22.));
#212=CARTESIAN_POINT('Origin',(0.,0.,-0.5));
#213=CARTESIAN_POINT('',(-1.75,-2.14313189850787E-016,-1.));
#214=CARTESIAN_POINT('Origin',(0.,0.,-1.));
#215=CARTESIAN_POINT('',(-2.75,3.36777869765522E-016,0.));
#216=CARTESIAN_POINT('Origin',(0.,0.,0.));
#217=CARTESIAN_POINT('Origin',(0.,0.,0.));
#218=CARTESIAN_POINT('',(-1.75,2.14313189850787E-016,-55.));
#219=CARTESIAN_POINT('Origin',(0.,0.,-55.));
#220=CARTESIAN_POINT('Origin',(0.,0.,0.));
#221=CARTESIAN_POINT('',(4.,4.89858719658941E-016,0.));
#222=CARTESIAN_POINT('Origin',(0.,0.,0.));
#223=CARTESIAN_POINT('Origin',(0.,0.,-55.));
#224=CARTESIAN_POINT('Origin',(0.,0.,0.));
#225=CARTESIAN_POINT('',(4.,4.89858719658941E-016,22.));
#226=CARTESIAN_POINT('Origin',(0.,0.,22.));
#227=CARTESIAN_POINT('Origin',(0.,0.,22.));
#228=UNCERTAINTY_MEASURE_WITH_UNIT(LENGTH_MEASURE(0.01),#230,
'DISTANCE_ACCURACY_VALUE',
'Maximum model space distance between geometric entities at asserted c
onnectivities');
#229=(
GEOMETRIC_REPRESENTATION_CONTEXT(3)
GLOBAL_UNCERTAINTY_ASSIGNED_CONTEXT((#228))
GLOBAL_UNIT_ASSIGNED_CONTEXT((#230,#233,#231))
REPRESENTATION_CONTEXT('','3D')
);
#230=(
LENGTH_UNIT()
NAMED_UNIT(*)
SI_UNIT(.MILLI.,.METRE.)
);
#231=(
NAMED_UNIT(*)
SI_UNIT($,.STERADIAN.)
SOLID_ANGLE_UNIT()
);
#232=DIMENSIONAL_EXPONENTS(0.,0.,0.,0.,0.,0.,0.);
#233=(
CONVERSION_BASED_UNIT('degree',#235)
NAMED_UNIT(#232)
PLANE_ANGLE_UNIT()
);
#234=(
NAMED_UNIT(*)
PLANE_ANGLE_UNIT()
SI_UNIT($,.RADIAN.)
);
#235=PLANE_ANGLE_MEASURE_WITH_UNIT(PLANE_ANGLE_MEASURE(0.01745329252),#234);
#236=SHAPE_DEFINITION_REPRESENTATION(#237,#238);
#237=PRODUCT_DEFINITION_SHAPE('',$,#240);
#238=SHAPE_REPRESENTATION('',(#130),#229);
#239=PRODUCT_DEFINITION_CONTEXT('3D Mechanical Parts',#243,'design');
#240=PRODUCT_DEFINITION('ILM1M','ILM1M',#241,#239);
#241=PRODUCT_DEFINITION_FORMATION('',$,#245);
#242=APPLICATION_PROTOCOL_DEFINITION('international standard',
'automotive_design',2009,#243);
#243=APPLICATION_CONTEXT(
'Core Data for Automotive Mechanical Design Process');
#244=PRODUCT_CONTEXT('3D Mechanical Parts',#243,'mechanical');
#245=PRODUCT('ILM1M','ILM1M',$,(#244));
#246=PRESENTATION_STYLE_ASSIGNMENT((#248));
#247=PRESENTATION_STYLE_ASSIGNMENT((#249));
#248=SURFACE_STYLE_USAGE(.BOTH.,#250);
#249=SURFACE_STYLE_USAGE(.BOTH.,#251);
#250=SURFACE_SIDE_STYLE($,(#252));
#251=SURFACE_SIDE_STYLE($,(#253));
#252=SURFACE_STYLE_FILL_AREA(#254);
#253=SURFACE_STYLE_FILL_AREA(#255);
#254=FILL_AREA_STYLE($,(#256));
#255=FILL_AREA_STYLE($,(#257));
#256=FILL_AREA_STYLE_COLOUR($,#258);
#257=FILL_AREA_STYLE_COLOUR($,#259);
#258=COLOUR_RGB('',0.309803921568627,0.309803921568627,0.309803921568627);
#259=COLOUR_RGB('',0.780392156862745,0.568627450980392,0.113725490196078);
ENDSEC;
END-ISO-10303-21;
