ISO-10303-21;
HEADER;
/* Generated by software containing ST-Developer
 * from STEP Tools, Inc. (www.steptools.com) 
 */

FILE_DESCRIPTION(
/* description */ (''),
/* implementation_level */ '2;1');

FILE_NAME(
/* name */ 
'W:\\Step files Subconn 11-11-2014\\Circular\\Dummy connector (DC)\\MC
DC1F.stp',
/* time_stamp */ '2014-11-26T09:01:37+01:00',
/* author */ ('sh'),
/* organization */ (''),
/* preprocessor_version */ 'ST-DEVELOPER v15.2',
/* originating_system */ 'Autodesk Inventor 2014',
/* authorisation */ '');

FILE_SCHEMA (('AUTOMOTIVE_DESIGN { 1 0 10303 214 3 1 1 }'));
ENDSEC;

DATA;
#10=SHAPE_REPRESENTATION_RELATIONSHIP('SRR','None',#175,#11);
#11=ADVANCED_BREP_SHAPE_REPRESENTATION($,(#93),#166);
#12=STYLED_ITEM($,(#183),#93);
#13=CONICAL_SURFACE($,#99,1.9,45.);
#14=PLANE($,#98);
#15=PLANE($,#104);
#16=PLANE($,#106);
#17=PLANE($,#109);
#18=FACE_BOUND($,#33,.T.);
#19=FACE_BOUND($,#36,.T.);
#20=FACE_BOUND($,#38,.T.);
#21=FACE_BOUND($,#40,.T.);
#22=FACE_BOUND($,#43,.T.);
#23=FACE_BOUND($,#44,.T.);
#24=FACE_BOUND($,#45,.T.);
#25=FACE_OUTER_BOUND($,#32,.T.);
#26=FACE_OUTER_BOUND($,#34,.T.);
#27=FACE_OUTER_BOUND($,#35,.T.);
#28=FACE_OUTER_BOUND($,#37,.T.);
#29=FACE_OUTER_BOUND($,#39,.T.);
#30=FACE_OUTER_BOUND($,#41,.T.);
#31=FACE_OUTER_BOUND($,#42,.T.);
#32=EDGE_LOOP($,(#67));
#33=EDGE_LOOP($,(#68));
#34=EDGE_LOOP($,(#69));
#35=EDGE_LOOP($,(#70));
#36=EDGE_LOOP($,(#71));
#37=EDGE_LOOP($,(#72));
#38=EDGE_LOOP($,(#73));
#39=EDGE_LOOP($,(#74));
#40=EDGE_LOOP($,(#75));
#41=EDGE_LOOP($,(#76));
#42=EDGE_LOOP($,(#77));
#43=EDGE_LOOP($,(#78));
#44=EDGE_LOOP($,(#79));
#45=EDGE_LOOP($,(#80));
#46=CIRCLE($,#96,1.6);
#47=CIRCLE($,#97,1.6);
#48=CIRCLE($,#100,1.4);
#49=CIRCLE($,#101,2.4);
#50=CIRCLE($,#103,1.4);
#51=CIRCLE($,#105,3.2);
#52=CIRCLE($,#108,3.2);
#53=VERTEX_POINT($,#144);
#54=VERTEX_POINT($,#146);
#55=VERTEX_POINT($,#150);
#56=VERTEX_POINT($,#152);
#57=VERTEX_POINT($,#155);
#58=VERTEX_POINT($,#158);
#59=VERTEX_POINT($,#162);
#60=EDGE_CURVE($,#53,#53,#46,.T.);
#61=EDGE_CURVE($,#54,#54,#47,.T.);
#62=EDGE_CURVE($,#55,#55,#48,.T.);
#63=EDGE_CURVE($,#56,#56,#49,.T.);
#64=EDGE_CURVE($,#57,#57,#50,.T.);
#65=EDGE_CURVE($,#58,#58,#51,.T.);
#66=EDGE_CURVE($,#59,#59,#52,.T.);
#67=ORIENTED_EDGE($,*,*,#60,.F.);
#68=ORIENTED_EDGE($,*,*,#61,.F.);
#69=ORIENTED_EDGE($,*,*,#60,.T.);
#70=ORIENTED_EDGE($,*,*,#62,.T.);
#71=ORIENTED_EDGE($,*,*,#63,.T.);
#72=ORIENTED_EDGE($,*,*,#64,.T.);
#73=ORIENTED_EDGE($,*,*,#62,.F.);
#74=ORIENTED_EDGE($,*,*,#65,.T.);
#75=ORIENTED_EDGE($,*,*,#63,.F.);
#76=ORIENTED_EDGE($,*,*,#64,.F.);
#77=ORIENTED_EDGE($,*,*,#66,.T.);
#78=ORIENTED_EDGE($,*,*,#65,.F.);
#79=ORIENTED_EDGE($,*,*,#61,.T.);
#80=ORIENTED_EDGE($,*,*,#66,.F.);
#81=CYLINDRICAL_SURFACE($,#95,1.6);
#82=CYLINDRICAL_SURFACE($,#102,1.4);
#83=CYLINDRICAL_SURFACE($,#107,3.2);
#84=ADVANCED_FACE($,(#25,#18),#81,.F.);
#85=ADVANCED_FACE($,(#26),#14,.F.);
#86=ADVANCED_FACE($,(#27,#19),#13,.T.);
#87=ADVANCED_FACE($,(#28,#20),#82,.T.);
#88=ADVANCED_FACE($,(#29,#21),#15,.T.);
#89=ADVANCED_FACE($,(#30),#16,.F.);
#90=ADVANCED_FACE($,(#31,#22),#83,.T.);
#91=ADVANCED_FACE($,(#23,#24),#17,.F.);
#92=CLOSED_SHELL($,(#84,#85,#86,#87,#88,#89,#90,#91));
#93=MANIFOLD_SOLID_BREP('Solid2',#92);
#94=AXIS2_PLACEMENT_3D('placement',#142,#110,#111);
#95=AXIS2_PLACEMENT_3D($,#143,#112,#113);
#96=AXIS2_PLACEMENT_3D($,#145,#114,#115);
#97=AXIS2_PLACEMENT_3D($,#147,#116,#117);
#98=AXIS2_PLACEMENT_3D($,#148,#118,#119);
#99=AXIS2_PLACEMENT_3D($,#149,#120,#121);
#100=AXIS2_PLACEMENT_3D($,#151,#122,#123);
#101=AXIS2_PLACEMENT_3D($,#153,#124,#125);
#102=AXIS2_PLACEMENT_3D($,#154,#126,#127);
#103=AXIS2_PLACEMENT_3D($,#156,#128,#129);
#104=AXIS2_PLACEMENT_3D($,#157,#130,#131);
#105=AXIS2_PLACEMENT_3D($,#159,#132,#133);
#106=AXIS2_PLACEMENT_3D($,#160,#134,#135);
#107=AXIS2_PLACEMENT_3D($,#161,#136,#137);
#108=AXIS2_PLACEMENT_3D($,#163,#138,#139);
#109=AXIS2_PLACEMENT_3D($,#164,#140,#141);
#110=DIRECTION('axis',(0.,0.,1.));
#111=DIRECTION('refdir',(1.,0.,0.));
#112=DIRECTION('center_axis',(0.,0.,-1.));
#113=DIRECTION('ref_axis',(-1.,0.,0.));
#114=DIRECTION('center_axis',(0.,0.,1.));
#115=DIRECTION('ref_axis',(-1.,0.,0.));
#116=DIRECTION('center_axis',(0.,0.,-1.));
#117=DIRECTION('ref_axis',(-1.,0.,0.));
#118=DIRECTION('center_axis',(0.,0.,-1.));
#119=DIRECTION('ref_axis',(-1.,0.,0.));
#120=DIRECTION('center_axis',(0.,0.,1.));
#121=DIRECTION('ref_axis',(1.,0.,0.));
#122=DIRECTION('center_axis',(0.,0.,1.));
#123=DIRECTION('ref_axis',(1.,0.,0.));
#124=DIRECTION('center_axis',(0.,0.,-1.));
#125=DIRECTION('ref_axis',(1.,0.,0.));
#126=DIRECTION('center_axis',(0.,0.,-1.));
#127=DIRECTION('ref_axis',(1.,0.,0.));
#128=DIRECTION('center_axis',(0.,0.,1.));
#129=DIRECTION('ref_axis',(1.,0.,0.));
#130=DIRECTION('center_axis',(0.,0.,-1.));
#131=DIRECTION('ref_axis',(-1.,0.,0.));
#132=DIRECTION('center_axis',(0.,0.,-1.));
#133=DIRECTION('ref_axis',(-1.,0.,0.));
#134=DIRECTION('center_axis',(0.,0.,1.));
#135=DIRECTION('ref_axis',(1.,0.,0.));
#136=DIRECTION('center_axis',(0.,0.,1.));
#137=DIRECTION('ref_axis',(-1.,0.,0.));
#138=DIRECTION('center_axis',(0.,0.,-1.));
#139=DIRECTION('ref_axis',(-1.,0.,0.));
#140=DIRECTION('center_axis',(0.,0.,-1.));
#141=DIRECTION('ref_axis',(-1.,0.,0.));
#142=CARTESIAN_POINT('',(0.,0.,0.));
#143=CARTESIAN_POINT('Origin',(0.,0.,28.5));
#144=CARTESIAN_POINT('',(1.6,1.95943487863576E-016,14.5));
#145=CARTESIAN_POINT('Origin',(0.,0.,14.5));
#146=CARTESIAN_POINT('',(1.6,1.95943487863576E-016,28.5));
#147=CARTESIAN_POINT('Origin',(0.,0.,28.5));
#148=CARTESIAN_POINT('Origin',(0.,0.,14.5));
#149=CARTESIAN_POINT('Origin',(0.,0.,-0.5));
#150=CARTESIAN_POINT('',(-1.4,-1.71450551880629E-016,-1.));
#151=CARTESIAN_POINT('Origin',(0.,0.,-1.));
#152=CARTESIAN_POINT('',(-2.4,2.93915231795365E-016,0.));
#153=CARTESIAN_POINT('Origin',(0.,0.,0.));
#154=CARTESIAN_POINT('Origin',(0.,0.,0.));
#155=CARTESIAN_POINT('',(-1.4,1.71450551880629E-016,-38.));
#156=CARTESIAN_POINT('Origin',(0.,0.,-38.));
#157=CARTESIAN_POINT('Origin',(0.,0.,0.));
#158=CARTESIAN_POINT('',(3.2,3.91886975727153E-016,0.));
#159=CARTESIAN_POINT('Origin',(0.,0.,0.));
#160=CARTESIAN_POINT('Origin',(0.,0.,-38.));
#161=CARTESIAN_POINT('Origin',(0.,0.,0.));
#162=CARTESIAN_POINT('',(3.2,3.91886975727153E-016,28.5));
#163=CARTESIAN_POINT('Origin',(0.,0.,28.5));
#164=CARTESIAN_POINT('Origin',(0.,0.,28.5));
#165=UNCERTAINTY_MEASURE_WITH_UNIT(LENGTH_MEASURE(0.01),#167,
'DISTANCE_ACCURACY_VALUE',
'Maximum model space distance between geometric entities at asserted c
onnectivities');
#166=(
GEOMETRIC_REPRESENTATION_CONTEXT(3)
GLOBAL_UNCERTAINTY_ASSIGNED_CONTEXT((#165))
GLOBAL_UNIT_ASSIGNED_CONTEXT((#167,#170,#168))
REPRESENTATION_CONTEXT('','3D')
);
#167=(
LENGTH_UNIT()
NAMED_UNIT(*)
SI_UNIT(.MILLI.,.METRE.)
);
#168=(
NAMED_UNIT(*)
SI_UNIT($,.STERADIAN.)
SOLID_ANGLE_UNIT()
);
#169=DIMENSIONAL_EXPONENTS(0.,0.,0.,0.,0.,0.,0.);
#170=(
CONVERSION_BASED_UNIT('degree',#172)
NAMED_UNIT(#169)
PLANE_ANGLE_UNIT()
);
#171=(
NAMED_UNIT(*)
PLANE_ANGLE_UNIT()
SI_UNIT($,.RADIAN.)
);
#172=PLANE_ANGLE_MEASURE_WITH_UNIT(PLANE_ANGLE_MEASURE(0.01745329252),#171);
#173=SHAPE_DEFINITION_REPRESENTATION(#174,#175);
#174=PRODUCT_DEFINITION_SHAPE('',$,#177);
#175=SHAPE_REPRESENTATION('',(#94),#166);
#176=PRODUCT_DEFINITION_CONTEXT('3D Mechanical Parts',#180,'design');
#177=PRODUCT_DEFINITION('MCDC1F','MCDC1F',#178,#176);
#178=PRODUCT_DEFINITION_FORMATION('',$,#182);
#179=APPLICATION_PROTOCOL_DEFINITION('international standard',
'automotive_design',2009,#180);
#180=APPLICATION_CONTEXT(
'Core Data for Automotive Mechanical Design Process');
#181=PRODUCT_CONTEXT('3D Mechanical Parts',#180,'mechanical');
#182=PRODUCT('MCDC1F','MCDC1F',$,(#181));
#183=PRESENTATION_STYLE_ASSIGNMENT((#184));
#184=SURFACE_STYLE_USAGE(.BOTH.,#185);
#185=SURFACE_SIDE_STYLE($,(#186));
#186=SURFACE_STYLE_FILL_AREA(#187);
#187=FILL_AREA_STYLE($,(#188));
#188=FILL_AREA_STYLE_COLOUR($,#189);
#189=COLOUR_RGB('',0.309803921568627,0.309803921568627,0.309803921568627);
ENDSEC;
END-ISO-10303-21;
