ISO-10303-21;
HEADER;
/* Generated by software containing ST-Developer
 * from STEP Tools, Inc. (www.steptools.com) 
 */

FILE_DESCRIPTION(
/* description */ (''),
/* implementation_level */ '2;1');

FILE_NAME(
/* name */ 
'W:\\Step files som skal ligges p\X\E5 hjemmeside\\SubConn\\Ass\\Overm
ould boot (OMB)\\MCOMB.stp',
/* time_stamp */ '2016-02-09T15:04:18+01:00',
/* author */ ('sh'),
/* organization */ (''),
/* preprocessor_version */ 'ST-DEVELOPER v15.2',
/* originating_system */ 'Autodesk Inventor 2014',
/* authorisation */ '');

FILE_SCHEMA (('AUTOMOTIVE_DESIGN { 1 0 10303 214 3 1 1 }'));
ENDSEC;

DATA;
#10=SHAPE_REPRESENTATION_RELATIONSHIP('SRR','None',#289,#11);
#11=ADVANCED_BREP_SHAPE_REPRESENTATION($,(#157),#280);
#12=STYLED_ITEM($,(#297),#157);
#13=CYLINDRICAL_SURFACE($,#180,3.15);
#14=CYLINDRICAL_SURFACE($,#182,6.75);
#15=FACE_OUTER_BOUND($,#48,.T.);
#16=FACE_OUTER_BOUND($,#52,.T.);
#17=FACE_OUTER_BOUND($,#56,.T.);
#18=FACE_OUTER_BOUND($,#60,.T.);
#19=FACE_OUTER_BOUND($,#64,.T.);
#20=FACE_OUTER_BOUND($,#66,.T.);
#21=FACE_OUTER_BOUND($,#68,.T.);
#22=CONICAL_SURFACE($,#162,6.035,4.09918915435397);
#23=CONICAL_SURFACE($,#166,5.0975,4.2416709774017);
#24=CONICAL_SURFACE($,#170,4.1525,4.24167097740169);
#25=CONICAL_SURFACE($,#174,3.215,4.09918915435398);
#26=CONICAL_SURFACE($,#178,2.325,2.6990884033672);
#27=FACE_BOUND($,#46,.T.);
#28=FACE_BOUND($,#47,.T.);
#29=FACE_BOUND($,#49,.T.);
#30=FACE_BOUND($,#50,.T.);
#31=FACE_BOUND($,#51,.T.);
#32=FACE_BOUND($,#53,.T.);
#33=FACE_BOUND($,#54,.T.);
#34=FACE_BOUND($,#55,.T.);
#35=FACE_BOUND($,#57,.T.);
#36=FACE_BOUND($,#58,.T.);
#37=FACE_BOUND($,#59,.T.);
#38=FACE_BOUND($,#61,.T.);
#39=FACE_BOUND($,#62,.T.);
#40=FACE_BOUND($,#63,.T.);
#41=FACE_BOUND($,#65,.T.);
#42=FACE_BOUND($,#67,.T.);
#43=FACE_BOUND($,#69,.T.);
#44=FACE_BOUND($,#70,.T.);
#45=FACE_BOUND($,#71,.T.);
#46=EDGE_LOOP($,(#111));
#47=EDGE_LOOP($,(#112));
#48=EDGE_LOOP($,(#113));
#49=EDGE_LOOP($,(#114));
#50=EDGE_LOOP($,(#115));
#51=EDGE_LOOP($,(#116));
#52=EDGE_LOOP($,(#117));
#53=EDGE_LOOP($,(#118));
#54=EDGE_LOOP($,(#119));
#55=EDGE_LOOP($,(#120));
#56=EDGE_LOOP($,(#121));
#57=EDGE_LOOP($,(#122));
#58=EDGE_LOOP($,(#123));
#59=EDGE_LOOP($,(#124));
#60=EDGE_LOOP($,(#125));
#61=EDGE_LOOP($,(#126));
#62=EDGE_LOOP($,(#127));
#63=EDGE_LOOP($,(#128));
#64=EDGE_LOOP($,(#129));
#65=EDGE_LOOP($,(#130));
#66=EDGE_LOOP($,(#131));
#67=EDGE_LOOP($,(#132));
#68=EDGE_LOOP($,(#133));
#69=EDGE_LOOP($,(#134));
#70=EDGE_LOOP($,(#135));
#71=EDGE_LOOP($,(#136));
#72=CIRCLE($,#160,6.25);
#73=CIRCLE($,#161,6.75);
#74=CIRCLE($,#163,5.82);
#75=CIRCLE($,#165,5.32);
#76=CIRCLE($,#167,4.875);
#77=CIRCLE($,#169,4.375);
#78=CIRCLE($,#171,3.93);
#79=CIRCLE($,#173,3.43);
#80=CIRCLE($,#175,3.);
#81=CIRCLE($,#177,1.5);
#82=CIRCLE($,#179,3.15);
#83=CIRCLE($,#181,3.15);
#84=CIRCLE($,#183,6.75);
#85=VERTEX_POINT($,#241);
#86=VERTEX_POINT($,#243);
#87=VERTEX_POINT($,#246);
#88=VERTEX_POINT($,#249);
#89=VERTEX_POINT($,#252);
#90=VERTEX_POINT($,#255);
#91=VERTEX_POINT($,#258);
#92=VERTEX_POINT($,#261);
#93=VERTEX_POINT($,#264);
#94=VERTEX_POINT($,#267);
#95=VERTEX_POINT($,#270);
#96=VERTEX_POINT($,#273);
#97=VERTEX_POINT($,#276);
#98=EDGE_CURVE($,#85,#85,#72,.T.);
#99=EDGE_CURVE($,#86,#86,#73,.T.);
#100=EDGE_CURVE($,#87,#87,#74,.T.);
#101=EDGE_CURVE($,#88,#88,#75,.T.);
#102=EDGE_CURVE($,#89,#89,#76,.T.);
#103=EDGE_CURVE($,#90,#90,#77,.T.);
#104=EDGE_CURVE($,#91,#91,#78,.T.);
#105=EDGE_CURVE($,#92,#92,#79,.T.);
#106=EDGE_CURVE($,#93,#93,#80,.T.);
#107=EDGE_CURVE($,#94,#94,#81,.T.);
#108=EDGE_CURVE($,#95,#95,#82,.T.);
#109=EDGE_CURVE($,#96,#96,#83,.T.);
#110=EDGE_CURVE($,#97,#97,#84,.T.);
#111=ORIENTED_EDGE($,*,*,#98,.F.);
#112=ORIENTED_EDGE($,*,*,#99,.T.);
#113=ORIENTED_EDGE($,*,*,#100,.F.);
#114=ORIENTED_EDGE($,*,*,#98,.T.);
#115=ORIENTED_EDGE($,*,*,#101,.F.);
#116=ORIENTED_EDGE($,*,*,#100,.T.);
#117=ORIENTED_EDGE($,*,*,#102,.F.);
#118=ORIENTED_EDGE($,*,*,#101,.T.);
#119=ORIENTED_EDGE($,*,*,#103,.F.);
#120=ORIENTED_EDGE($,*,*,#102,.T.);
#121=ORIENTED_EDGE($,*,*,#104,.F.);
#122=ORIENTED_EDGE($,*,*,#103,.T.);
#123=ORIENTED_EDGE($,*,*,#105,.F.);
#124=ORIENTED_EDGE($,*,*,#104,.T.);
#125=ORIENTED_EDGE($,*,*,#106,.F.);
#126=ORIENTED_EDGE($,*,*,#105,.T.);
#127=ORIENTED_EDGE($,*,*,#107,.F.);
#128=ORIENTED_EDGE($,*,*,#106,.T.);
#129=ORIENTED_EDGE($,*,*,#108,.T.);
#130=ORIENTED_EDGE($,*,*,#107,.T.);
#131=ORIENTED_EDGE($,*,*,#108,.F.);
#132=ORIENTED_EDGE($,*,*,#109,.F.);
#133=ORIENTED_EDGE($,*,*,#99,.F.);
#134=ORIENTED_EDGE($,*,*,#110,.F.);
#135=ORIENTED_EDGE($,*,*,#109,.T.);
#136=ORIENTED_EDGE($,*,*,#110,.T.);
#137=PLANE($,#159);
#138=PLANE($,#164);
#139=PLANE($,#168);
#140=PLANE($,#172);
#141=PLANE($,#176);
#142=PLANE($,#184);
#143=ADVANCED_FACE($,(#27,#28),#137,.T.);
#144=ADVANCED_FACE($,(#15,#29),#22,.T.);
#145=ADVANCED_FACE($,(#30,#31),#138,.T.);
#146=ADVANCED_FACE($,(#16,#32),#23,.T.);
#147=ADVANCED_FACE($,(#33,#34),#139,.T.);
#148=ADVANCED_FACE($,(#17,#35),#24,.T.);
#149=ADVANCED_FACE($,(#36,#37),#140,.T.);
#150=ADVANCED_FACE($,(#18,#38),#25,.T.);
#151=ADVANCED_FACE($,(#39,#40),#141,.T.);
#152=ADVANCED_FACE($,(#19,#41),#26,.F.);
#153=ADVANCED_FACE($,(#20,#42),#13,.F.);
#154=ADVANCED_FACE($,(#21,#43),#14,.T.);
#155=ADVANCED_FACE($,(#44,#45),#142,.T.);
#156=CLOSED_SHELL($,(#143,#144,#145,#146,#147,#148,#149,#150,#151,#152,
#153,#154,#155));
#157=MANIFOLD_SOLID_BREP('Solid1',#156);
#158=AXIS2_PLACEMENT_3D('placement',#239,#185,#186);
#159=AXIS2_PLACEMENT_3D($,#240,#187,#188);
#160=AXIS2_PLACEMENT_3D($,#242,#189,#190);
#161=AXIS2_PLACEMENT_3D($,#244,#191,#192);
#162=AXIS2_PLACEMENT_3D($,#245,#193,#194);
#163=AXIS2_PLACEMENT_3D($,#247,#195,#196);
#164=AXIS2_PLACEMENT_3D($,#248,#197,#198);
#165=AXIS2_PLACEMENT_3D($,#250,#199,#200);
#166=AXIS2_PLACEMENT_3D($,#251,#201,#202);
#167=AXIS2_PLACEMENT_3D($,#253,#203,#204);
#168=AXIS2_PLACEMENT_3D($,#254,#205,#206);
#169=AXIS2_PLACEMENT_3D($,#256,#207,#208);
#170=AXIS2_PLACEMENT_3D($,#257,#209,#210);
#171=AXIS2_PLACEMENT_3D($,#259,#211,#212);
#172=AXIS2_PLACEMENT_3D($,#260,#213,#214);
#173=AXIS2_PLACEMENT_3D($,#262,#215,#216);
#174=AXIS2_PLACEMENT_3D($,#263,#217,#218);
#175=AXIS2_PLACEMENT_3D($,#265,#219,#220);
#176=AXIS2_PLACEMENT_3D($,#266,#221,#222);
#177=AXIS2_PLACEMENT_3D($,#268,#223,#224);
#178=AXIS2_PLACEMENT_3D($,#269,#225,#226);
#179=AXIS2_PLACEMENT_3D($,#271,#227,#228);
#180=AXIS2_PLACEMENT_3D($,#272,#229,#230);
#181=AXIS2_PLACEMENT_3D($,#274,#231,#232);
#182=AXIS2_PLACEMENT_3D($,#275,#233,#234);
#183=AXIS2_PLACEMENT_3D($,#277,#235,#236);
#184=AXIS2_PLACEMENT_3D($,#278,#237,#238);
#185=DIRECTION('axis',(0.,0.,1.));
#186=DIRECTION('refdir',(1.,0.,0.));
#187=DIRECTION('center_axis',(0.,0.,1.));
#188=DIRECTION('ref_axis',(1.,0.,0.));
#189=DIRECTION('center_axis',(0.,0.,1.));
#190=DIRECTION('ref_axis',(-1.,0.,0.));
#191=DIRECTION('center_axis',(0.,0.,1.));
#192=DIRECTION('ref_axis',(-1.,0.,0.));
#193=DIRECTION('center_axis',(0.,0.,-1.));
#194=DIRECTION('ref_axis',(-1.,0.,0.));
#195=DIRECTION('center_axis',(0.,0.,1.));
#196=DIRECTION('ref_axis',(-1.,0.,0.));
#197=DIRECTION('center_axis',(0.,0.,1.));
#198=DIRECTION('ref_axis',(1.,0.,0.));
#199=DIRECTION('center_axis',(0.,0.,1.));
#200=DIRECTION('ref_axis',(-1.,0.,0.));
#201=DIRECTION('center_axis',(0.,0.,-1.));
#202=DIRECTION('ref_axis',(-1.,0.,0.));
#203=DIRECTION('center_axis',(0.,0.,1.));
#204=DIRECTION('ref_axis',(-1.,0.,0.));
#205=DIRECTION('center_axis',(0.,0.,1.));
#206=DIRECTION('ref_axis',(1.,0.,0.));
#207=DIRECTION('center_axis',(0.,0.,1.));
#208=DIRECTION('ref_axis',(-1.,0.,0.));
#209=DIRECTION('center_axis',(0.,0.,-1.));
#210=DIRECTION('ref_axis',(-1.,0.,0.));
#211=DIRECTION('center_axis',(0.,0.,1.));
#212=DIRECTION('ref_axis',(-1.,0.,0.));
#213=DIRECTION('center_axis',(0.,0.,1.));
#214=DIRECTION('ref_axis',(1.,0.,0.));
#215=DIRECTION('center_axis',(0.,0.,1.));
#216=DIRECTION('ref_axis',(-1.,0.,0.));
#217=DIRECTION('center_axis',(0.,0.,-1.));
#218=DIRECTION('ref_axis',(-1.,0.,0.));
#219=DIRECTION('center_axis',(0.,0.,1.));
#220=DIRECTION('ref_axis',(-1.,0.,0.));
#221=DIRECTION('center_axis',(0.,0.,1.));
#222=DIRECTION('ref_axis',(1.,0.,0.));
#223=DIRECTION('center_axis',(0.,0.,1.));
#224=DIRECTION('ref_axis',(-1.,0.,0.));
#225=DIRECTION('center_axis',(0.,0.,-1.));
#226=DIRECTION('ref_axis',(-1.,0.,0.));
#227=DIRECTION('center_axis',(0.,0.,-1.));
#228=DIRECTION('ref_axis',(-1.,0.,0.));
#229=DIRECTION('center_axis',(0.,0.,1.));
#230=DIRECTION('ref_axis',(-1.,0.,0.));
#231=DIRECTION('center_axis',(0.,0.,1.));
#232=DIRECTION('ref_axis',(-1.,0.,0.));
#233=DIRECTION('center_axis',(0.,0.,1.));
#234=DIRECTION('ref_axis',(-1.,0.,0.));
#235=DIRECTION('center_axis',(0.,0.,-1.));
#236=DIRECTION('ref_axis',(-1.,0.,0.));
#237=DIRECTION('center_axis',(0.,0.,-1.));
#238=DIRECTION('ref_axis',(-1.,0.,0.));
#239=CARTESIAN_POINT('',(0.,0.,0.));
#240=CARTESIAN_POINT('Origin',(-6.5,0.,62.6));
#241=CARTESIAN_POINT('',(-6.25,0.,62.6));
#242=CARTESIAN_POINT('Origin',(0.,0.,62.6));
#243=CARTESIAN_POINT('',(-6.75,0.,62.6));
#244=CARTESIAN_POINT('Origin',(0.,0.,62.6));
#245=CARTESIAN_POINT('Origin',(0.,0.,65.6));
#246=CARTESIAN_POINT('',(-5.82,0.,68.6));
#247=CARTESIAN_POINT('Origin',(0.,0.,68.6));
#248=CARTESIAN_POINT('Origin',(-5.57,0.,68.6));
#249=CARTESIAN_POINT('',(-5.32,0.,68.6));
#250=CARTESIAN_POINT('Origin',(0.,0.,68.6));
#251=CARTESIAN_POINT('Origin',(0.,0.,71.6));
#252=CARTESIAN_POINT('',(-4.875,0.,74.6));
#253=CARTESIAN_POINT('Origin',(0.,0.,74.6));
#254=CARTESIAN_POINT('Origin',(-4.625,0.,74.6));
#255=CARTESIAN_POINT('',(-4.375,0.,74.6));
#256=CARTESIAN_POINT('Origin',(0.,0.,74.6));
#257=CARTESIAN_POINT('Origin',(0.,0.,77.6));
#258=CARTESIAN_POINT('',(-3.93,0.,80.6));
#259=CARTESIAN_POINT('Origin',(0.,0.,80.6));
#260=CARTESIAN_POINT('Origin',(-3.68,0.,80.6));
#261=CARTESIAN_POINT('',(-3.43,0.,80.6));
#262=CARTESIAN_POINT('Origin',(0.,0.,80.6));
#263=CARTESIAN_POINT('Origin',(0.,0.,83.6));
#264=CARTESIAN_POINT('',(-3.,0.,86.6));
#265=CARTESIAN_POINT('Origin',(0.,0.,86.6));
#266=CARTESIAN_POINT('Origin',(-2.25,0.,86.6));
#267=CARTESIAN_POINT('',(-1.5,0.,86.6));
#268=CARTESIAN_POINT('Origin',(0.,0.,86.6));
#269=CARTESIAN_POINT('Origin',(0.,0.,69.1));
#270=CARTESIAN_POINT('',(3.15,3.85763741731416E-016,51.6));
#271=CARTESIAN_POINT('Origin',(0.,0.,51.6));
#272=CARTESIAN_POINT('Origin',(0.,0.,0.));
#273=CARTESIAN_POINT('',(3.15,3.85763741731416E-016,0.));
#274=CARTESIAN_POINT('Origin',(0.,0.,0.));
#275=CARTESIAN_POINT('Origin',(0.,0.,0.));
#276=CARTESIAN_POINT('',(6.75,8.26636589424463E-016,0.));
#277=CARTESIAN_POINT('Origin',(0.,0.,0.));
#278=CARTESIAN_POINT('Origin',(0.,0.,0.));
#279=UNCERTAINTY_MEASURE_WITH_UNIT(LENGTH_MEASURE(0.01),#281,
'DISTANCE_ACCURACY_VALUE',
'Maximum model space distance between geometric entities at asserted c
onnectivities');
#280=(
GEOMETRIC_REPRESENTATION_CONTEXT(3)
GLOBAL_UNCERTAINTY_ASSIGNED_CONTEXT((#279))
GLOBAL_UNIT_ASSIGNED_CONTEXT((#281,#284,#282))
REPRESENTATION_CONTEXT('','3D')
);
#281=(
LENGTH_UNIT()
NAMED_UNIT(*)
SI_UNIT(.MILLI.,.METRE.)
);
#282=(
NAMED_UNIT(*)
SI_UNIT($,.STERADIAN.)
SOLID_ANGLE_UNIT()
);
#283=DIMENSIONAL_EXPONENTS(0.,0.,0.,0.,0.,0.,0.);
#284=(
CONVERSION_BASED_UNIT('degree',#286)
NAMED_UNIT(#283)
PLANE_ANGLE_UNIT()
);
#285=(
NAMED_UNIT(*)
PLANE_ANGLE_UNIT()
SI_UNIT($,.RADIAN.)
);
#286=PLANE_ANGLE_MEASURE_WITH_UNIT(PLANE_ANGLE_MEASURE(0.01745329252),#285);
#287=SHAPE_DEFINITION_REPRESENTATION(#288,#289);
#288=PRODUCT_DEFINITION_SHAPE('',$,#291);
#289=SHAPE_REPRESENTATION('',(#158),#280);
#290=PRODUCT_DEFINITION_CONTEXT('3D Mechanical Parts',#294,'design');
#291=PRODUCT_DEFINITION('MCOMB','MCOMB',#292,#290);
#292=PRODUCT_DEFINITION_FORMATION('',$,#296);
#293=APPLICATION_PROTOCOL_DEFINITION('international standard',
'automotive_design',2009,#294);
#294=APPLICATION_CONTEXT(
'Core Data for Automotive Mechanical Design Process');
#295=PRODUCT_CONTEXT('3D Mechanical Parts',#294,'mechanical');
#296=PRODUCT('MCOMB','MCOMB',$,(#295));
#297=PRESENTATION_STYLE_ASSIGNMENT((#298));
#298=SURFACE_STYLE_USAGE(.BOTH.,#299);
#299=SURFACE_SIDE_STYLE($,(#300));
#300=SURFACE_STYLE_FILL_AREA(#301);
#301=FILL_AREA_STYLE($,(#302));
#302=FILL_AREA_STYLE_COLOUR($,#303);
#303=COLOUR_RGB('',0.309803921568627,0.309803921568627,0.309803921568627);
ENDSEC;
END-ISO-10303-21;
