ISO-10303-21;
HEADER;
/* Generated by software containing ST-Developer
 * from STEP Tools, Inc. (www.steptools.com) 
 */

FILE_DESCRIPTION(
/* description */ (''),
/* implementation_level */ '2;1');

FILE_NAME(
/* name */ 
'W:\\Step files Subconn 11-11-2014\\Power\\Overmould (OM)\\OM1M.stp',
/* time_stamp */ '2014-12-01T15:26:30+01:00',
/* author */ ('sh'),
/* organization */ (''),
/* preprocessor_version */ 'ST-DEVELOPER v15.2',
/* originating_system */ 'Autodesk Inventor 2014',
/* authorisation */ '');

FILE_SCHEMA (('AUTOMOTIVE_DESIGN { 1 0 10303 214 3 1 1 }'));
ENDSEC;

DATA;
#10=SHAPE_REPRESENTATION_RELATIONSHIP('SRR','None',#344,#11);
#11=ADVANCED_BREP_SHAPE_REPRESENTATION($,(#190),#335);
#12=PLANE($,#197);
#13=PLANE($,#200);
#14=PLANE($,#213);
#15=PLANE($,#217);
#16=PLANE($,#221);
#17=PLANE($,#222);
#18=CYLINDRICAL_SURFACE($,#195,5.5);
#19=CYLINDRICAL_SURFACE($,#202,4.75);
#20=CYLINDRICAL_SURFACE($,#207,7.5);
#21=CYLINDRICAL_SURFACE($,#212,5.5);
#22=CYLINDRICAL_SURFACE($,#214,13.);
#23=CYLINDRICAL_SURFACE($,#218,15.5);
#24=FACE_BOUND($,#55,.T.);
#25=FACE_BOUND($,#57,.T.);
#26=FACE_BOUND($,#60,.T.);
#27=FACE_BOUND($,#61,.T.);
#28=FACE_BOUND($,#62,.T.);
#29=FACE_BOUND($,#64,.T.);
#30=FACE_BOUND($,#66,.T.);
#31=FACE_BOUND($,#68,.T.);
#32=FACE_BOUND($,#70,.T.);
#33=FACE_BOUND($,#72,.T.);
#34=FACE_BOUND($,#75,.T.);
#35=FACE_BOUND($,#76,.T.);
#36=FACE_BOUND($,#77,.T.);
#37=FACE_BOUND($,#79,.T.);
#38=FACE_BOUND($,#80,.T.);
#39=FACE_BOUND($,#81,.T.);
#40=FACE_BOUND($,#82,.T.);
#41=FACE_BOUND($,#83,.T.);
#42=FACE_OUTER_BOUND($,#54,.T.);
#43=FACE_OUTER_BOUND($,#56,.T.);
#44=FACE_OUTER_BOUND($,#58,.T.);
#45=FACE_OUTER_BOUND($,#59,.T.);
#46=FACE_OUTER_BOUND($,#63,.T.);
#47=FACE_OUTER_BOUND($,#65,.T.);
#48=FACE_OUTER_BOUND($,#67,.T.);
#49=FACE_OUTER_BOUND($,#69,.T.);
#50=FACE_OUTER_BOUND($,#71,.T.);
#51=FACE_OUTER_BOUND($,#73,.T.);
#52=FACE_OUTER_BOUND($,#74,.T.);
#53=FACE_OUTER_BOUND($,#78,.T.);
#54=EDGE_LOOP($,(#129));
#55=EDGE_LOOP($,(#130));
#56=EDGE_LOOP($,(#131));
#57=EDGE_LOOP($,(#132));
#58=EDGE_LOOP($,(#133));
#59=EDGE_LOOP($,(#134));
#60=EDGE_LOOP($,(#135));
#61=EDGE_LOOP($,(#136));
#62=EDGE_LOOP($,(#137));
#63=EDGE_LOOP($,(#138));
#64=EDGE_LOOP($,(#139));
#65=EDGE_LOOP($,(#140));
#66=EDGE_LOOP($,(#141));
#67=EDGE_LOOP($,(#142));
#68=EDGE_LOOP($,(#143));
#69=EDGE_LOOP($,(#144));
#70=EDGE_LOOP($,(#145));
#71=EDGE_LOOP($,(#146));
#72=EDGE_LOOP($,(#147));
#73=EDGE_LOOP($,(#148));
#74=EDGE_LOOP($,(#149));
#75=EDGE_LOOP($,(#150));
#76=EDGE_LOOP($,(#151));
#77=EDGE_LOOP($,(#152));
#78=EDGE_LOOP($,(#153));
#79=EDGE_LOOP($,(#154));
#80=EDGE_LOOP($,(#155));
#81=EDGE_LOOP($,(#156));
#82=EDGE_LOOP($,(#157));
#83=EDGE_LOOP($,(#158));
#84=CIRCLE($,#193,5.);
#85=CIRCLE($,#194,5.5);
#86=CIRCLE($,#196,5.5);
#87=CIRCLE($,#199,5.);
#88=CIRCLE($,#201,4.75);
#89=CIRCLE($,#203,4.75);
#90=CIRCLE($,#205,5.5);
#91=CIRCLE($,#206,7.5);
#92=CIRCLE($,#208,7.5);
#93=CIRCLE($,#210,4.5);
#94=CIRCLE($,#211,5.5);
#95=CIRCLE($,#215,13.);
#96=CIRCLE($,#216,13.);
#97=CIRCLE($,#219,15.5);
#98=CIRCLE($,#220,15.5);
#99=VERTEX_POINT($,#289);
#100=VERTEX_POINT($,#291);
#101=VERTEX_POINT($,#294);
#102=VERTEX_POINT($,#298);
#103=VERTEX_POINT($,#301);
#104=VERTEX_POINT($,#304);
#105=VERTEX_POINT($,#307);
#106=VERTEX_POINT($,#309);
#107=VERTEX_POINT($,#312);
#108=VERTEX_POINT($,#315);
#109=VERTEX_POINT($,#317);
#110=VERTEX_POINT($,#322);
#111=VERTEX_POINT($,#324);
#112=VERTEX_POINT($,#328);
#113=VERTEX_POINT($,#330);
#114=EDGE_CURVE($,#99,#99,#84,.T.);
#115=EDGE_CURVE($,#100,#100,#85,.T.);
#116=EDGE_CURVE($,#101,#101,#86,.T.);
#117=EDGE_CURVE($,#102,#102,#87,.T.);
#118=EDGE_CURVE($,#103,#103,#88,.T.);
#119=EDGE_CURVE($,#104,#104,#89,.T.);
#120=EDGE_CURVE($,#105,#105,#90,.T.);
#121=EDGE_CURVE($,#106,#106,#91,.T.);
#122=EDGE_CURVE($,#107,#107,#92,.T.);
#123=EDGE_CURVE($,#108,#108,#93,.T.);
#124=EDGE_CURVE($,#109,#109,#94,.T.);
#125=EDGE_CURVE($,#110,#110,#95,.T.);
#126=EDGE_CURVE($,#111,#111,#96,.T.);
#127=EDGE_CURVE($,#112,#112,#97,.T.);
#128=EDGE_CURVE($,#113,#113,#98,.T.);
#129=ORIENTED_EDGE($,*,*,#114,.T.);
#130=ORIENTED_EDGE($,*,*,#115,.T.);
#131=ORIENTED_EDGE($,*,*,#116,.F.);
#132=ORIENTED_EDGE($,*,*,#115,.F.);
#133=ORIENTED_EDGE($,*,*,#114,.F.);
#134=ORIENTED_EDGE($,*,*,#117,.T.);
#135=ORIENTED_EDGE($,*,*,#116,.T.);
#136=ORIENTED_EDGE($,*,*,#118,.T.);
#137=ORIENTED_EDGE($,*,*,#117,.F.);
#138=ORIENTED_EDGE($,*,*,#119,.T.);
#139=ORIENTED_EDGE($,*,*,#118,.F.);
#140=ORIENTED_EDGE($,*,*,#120,.T.);
#141=ORIENTED_EDGE($,*,*,#121,.T.);
#142=ORIENTED_EDGE($,*,*,#122,.F.);
#143=ORIENTED_EDGE($,*,*,#121,.F.);
#144=ORIENTED_EDGE($,*,*,#123,.T.);
#145=ORIENTED_EDGE($,*,*,#124,.T.);
#146=ORIENTED_EDGE($,*,*,#120,.F.);
#147=ORIENTED_EDGE($,*,*,#124,.F.);
#148=ORIENTED_EDGE($,*,*,#123,.F.);
#149=ORIENTED_EDGE($,*,*,#125,.T.);
#150=ORIENTED_EDGE($,*,*,#126,.F.);
#151=ORIENTED_EDGE($,*,*,#119,.F.);
#152=ORIENTED_EDGE($,*,*,#125,.F.);
#153=ORIENTED_EDGE($,*,*,#127,.T.);
#154=ORIENTED_EDGE($,*,*,#128,.T.);
#155=ORIENTED_EDGE($,*,*,#122,.T.);
#156=ORIENTED_EDGE($,*,*,#128,.F.);
#157=ORIENTED_EDGE($,*,*,#126,.T.);
#158=ORIENTED_EDGE($,*,*,#127,.F.);
#159=CONICAL_SURFACE($,#192,5.25,45.0000000000001);
#160=CONICAL_SURFACE($,#198,5.25,45.0000000000001);
#161=CONICAL_SURFACE($,#204,6.5,60.);
#162=CONICAL_SURFACE($,#209,5.,45.);
#163=STYLED_ITEM($,(#353),#173);
#164=STYLED_ITEM($,(#353),#174);
#165=STYLED_ITEM($,(#353),#175);
#166=STYLED_ITEM($,(#353),#176);
#167=STYLED_ITEM($,(#353),#177);
#168=STYLED_ITEM($,(#353),#178);
#169=STYLED_ITEM($,(#353),#181);
#170=STYLED_ITEM($,(#353),#182);
#171=STYLED_ITEM($,(#353),#183);
#172=STYLED_ITEM($,(#352),#190);
#173=ADVANCED_FACE($,(#42,#24),#159,.T.);
#174=ADVANCED_FACE($,(#43,#25),#18,.T.);
#175=ADVANCED_FACE($,(#44),#12,.F.);
#176=ADVANCED_FACE($,(#45,#26),#160,.T.);
#177=ADVANCED_FACE($,(#27,#28),#13,.F.);
#178=ADVANCED_FACE($,(#46,#29),#19,.T.);
#179=ADVANCED_FACE($,(#47,#30),#161,.T.);
#180=ADVANCED_FACE($,(#48,#31),#20,.T.);
#181=ADVANCED_FACE($,(#49,#32),#162,.T.);
#182=ADVANCED_FACE($,(#50,#33),#21,.T.);
#183=ADVANCED_FACE($,(#51),#14,.F.);
#184=ADVANCED_FACE($,(#52,#34),#22,.T.);
#185=ADVANCED_FACE($,(#35,#36),#15,.F.);
#186=ADVANCED_FACE($,(#53,#37),#23,.T.);
#187=ADVANCED_FACE($,(#38,#39),#16,.F.);
#188=ADVANCED_FACE($,(#40,#41),#17,.T.);
#189=CLOSED_SHELL($,(#173,#174,#175,#176,#177,#178,#179,#180,#181,#182,
#183,#184,#185,#186,#187,#188));
#190=MANIFOLD_SOLID_BREP('Solid2',#189);
#191=AXIS2_PLACEMENT_3D('placement',#287,#223,#224);
#192=AXIS2_PLACEMENT_3D($,#288,#225,#226);
#193=AXIS2_PLACEMENT_3D($,#290,#227,#228);
#194=AXIS2_PLACEMENT_3D($,#292,#229,#230);
#195=AXIS2_PLACEMENT_3D($,#293,#231,#232);
#196=AXIS2_PLACEMENT_3D($,#295,#233,#234);
#197=AXIS2_PLACEMENT_3D($,#296,#235,#236);
#198=AXIS2_PLACEMENT_3D($,#297,#237,#238);
#199=AXIS2_PLACEMENT_3D($,#299,#239,#240);
#200=AXIS2_PLACEMENT_3D($,#300,#241,#242);
#201=AXIS2_PLACEMENT_3D($,#302,#243,#244);
#202=AXIS2_PLACEMENT_3D($,#303,#245,#246);
#203=AXIS2_PLACEMENT_3D($,#305,#247,#248);
#204=AXIS2_PLACEMENT_3D($,#306,#249,#250);
#205=AXIS2_PLACEMENT_3D($,#308,#251,#252);
#206=AXIS2_PLACEMENT_3D($,#310,#253,#254);
#207=AXIS2_PLACEMENT_3D($,#311,#255,#256);
#208=AXIS2_PLACEMENT_3D($,#313,#257,#258);
#209=AXIS2_PLACEMENT_3D($,#314,#259,#260);
#210=AXIS2_PLACEMENT_3D($,#316,#261,#262);
#211=AXIS2_PLACEMENT_3D($,#318,#263,#264);
#212=AXIS2_PLACEMENT_3D($,#319,#265,#266);
#213=AXIS2_PLACEMENT_3D($,#320,#267,#268);
#214=AXIS2_PLACEMENT_3D($,#321,#269,#270);
#215=AXIS2_PLACEMENT_3D($,#323,#271,#272);
#216=AXIS2_PLACEMENT_3D($,#325,#273,#274);
#217=AXIS2_PLACEMENT_3D($,#326,#275,#276);
#218=AXIS2_PLACEMENT_3D($,#327,#277,#278);
#219=AXIS2_PLACEMENT_3D($,#329,#279,#280);
#220=AXIS2_PLACEMENT_3D($,#331,#281,#282);
#221=AXIS2_PLACEMENT_3D($,#332,#283,#284);
#222=AXIS2_PLACEMENT_3D($,#333,#285,#286);
#223=DIRECTION('axis',(0.,0.,1.));
#224=DIRECTION('refdir',(1.,0.,0.));
#225=DIRECTION('center_axis',(0.,0.,1.));
#226=DIRECTION('ref_axis',(1.,0.,0.));
#227=DIRECTION('center_axis',(0.,0.,1.));
#228=DIRECTION('ref_axis',(1.,0.,0.));
#229=DIRECTION('center_axis',(0.,0.,-1.));
#230=DIRECTION('ref_axis',(1.,0.,0.));
#231=DIRECTION('center_axis',(0.,0.,-1.));
#232=DIRECTION('ref_axis',(1.,0.,0.));
#233=DIRECTION('center_axis',(0.,0.,1.));
#234=DIRECTION('ref_axis',(1.,0.,0.));
#235=DIRECTION('center_axis',(0.,0.,1.));
#236=DIRECTION('ref_axis',(1.,0.,0.));
#237=DIRECTION('center_axis',(0.,0.,-1.));
#238=DIRECTION('ref_axis',(1.,0.,0.));
#239=DIRECTION('center_axis',(0.,0.,-1.));
#240=DIRECTION('ref_axis',(1.,0.,0.));
#241=DIRECTION('center_axis',(0.,0.,-1.));
#242=DIRECTION('ref_axis',(-1.,0.,0.));
#243=DIRECTION('center_axis',(0.,0.,-1.));
#244=DIRECTION('ref_axis',(-1.,0.,0.));
#245=DIRECTION('center_axis',(0.,0.,-1.));
#246=DIRECTION('ref_axis',(-1.,0.,0.));
#247=DIRECTION('center_axis',(0.,0.,-1.));
#248=DIRECTION('ref_axis',(-1.,0.,0.));
#249=DIRECTION('center_axis',(0.,0.,-1.));
#250=DIRECTION('ref_axis',(-1.,0.,0.));
#251=DIRECTION('center_axis',(0.,0.,-1.));
#252=DIRECTION('ref_axis',(-1.,0.,0.));
#253=DIRECTION('center_axis',(0.,0.,1.));
#254=DIRECTION('ref_axis',(-1.,0.,0.));
#255=DIRECTION('center_axis',(0.,0.,1.));
#256=DIRECTION('ref_axis',(-1.,0.,0.));
#257=DIRECTION('center_axis',(0.,0.,-1.));
#258=DIRECTION('ref_axis',(-1.,0.,0.));
#259=DIRECTION('center_axis',(0.,0.,-1.));
#260=DIRECTION('ref_axis',(-1.,0.,0.));
#261=DIRECTION('center_axis',(0.,0.,-1.));
#262=DIRECTION('ref_axis',(-1.,0.,0.));
#263=DIRECTION('center_axis',(0.,0.,1.));
#264=DIRECTION('ref_axis',(-1.,0.,0.));
#265=DIRECTION('center_axis',(0.,0.,1.));
#266=DIRECTION('ref_axis',(-1.,0.,0.));
#267=DIRECTION('center_axis',(0.,0.,-1.));
#268=DIRECTION('ref_axis',(-1.,0.,0.));
#269=DIRECTION('center_axis',(0.,0.,-1.));
#270=DIRECTION('ref_axis',(1.,0.,0.));
#271=DIRECTION('center_axis',(0.,0.,1.));
#272=DIRECTION('ref_axis',(1.,0.,0.));
#273=DIRECTION('center_axis',(0.,0.,1.));
#274=DIRECTION('ref_axis',(1.,0.,0.));
#275=DIRECTION('center_axis',(0.,0.,1.));
#276=DIRECTION('ref_axis',(1.,0.,0.));
#277=DIRECTION('center_axis',(0.,0.,-1.));
#278=DIRECTION('ref_axis',(-1.,0.,0.));
#279=DIRECTION('center_axis',(0.,0.,1.));
#280=DIRECTION('ref_axis',(-1.,0.,0.));
#281=DIRECTION('center_axis',(0.,0.,-1.));
#282=DIRECTION('ref_axis',(-1.,0.,0.));
#283=DIRECTION('center_axis',(0.,0.,-1.));
#284=DIRECTION('ref_axis',(-1.,0.,0.));
#285=DIRECTION('center_axis',(0.,0.,-1.));
#286=DIRECTION('ref_axis',(-1.,0.,0.));
#287=CARTESIAN_POINT('',(0.,0.,0.));
#288=CARTESIAN_POINT('Origin',(0.,0.,-57.75));
#289=CARTESIAN_POINT('',(-5.,-6.12323399573677E-016,-58.));
#290=CARTESIAN_POINT('Origin',(0.,0.,-58.));
#291=CARTESIAN_POINT('',(-5.5,6.73555739531044E-016,-57.5));
#292=CARTESIAN_POINT('Origin',(0.,0.,-57.5));
#293=CARTESIAN_POINT('Origin',(0.,0.,-41.));
#294=CARTESIAN_POINT('',(-5.5,-6.73555739531044E-016,-43.));
#295=CARTESIAN_POINT('Origin',(0.,0.,-43.));
#296=CARTESIAN_POINT('Origin',(0.,0.,-58.));
#297=CARTESIAN_POINT('Origin',(0.,0.,-42.75));
#298=CARTESIAN_POINT('',(-5.,6.12323399573677E-016,-42.5));
#299=CARTESIAN_POINT('Origin',(0.,0.,-42.5));
#300=CARTESIAN_POINT('Origin',(-7.19835441481767,0.,-42.5));
#301=CARTESIAN_POINT('',(-4.75,0.,-42.5));
#302=CARTESIAN_POINT('Origin',(0.,0.,-42.5));
#303=CARTESIAN_POINT('Origin',(0.,0.,-41.75));
#304=CARTESIAN_POINT('',(-4.75,0.,-41.));
#305=CARTESIAN_POINT('Origin',(0.,0.,-41.));
#306=CARTESIAN_POINT('Origin',(0.,0.,17.4226497308104));
#307=CARTESIAN_POINT('',(5.5,6.73555739531044E-016,18.));
#308=CARTESIAN_POINT('Origin',(0.,0.,18.));
#309=CARTESIAN_POINT('',(7.5,9.18485099360515E-016,16.8452994616207));
#310=CARTESIAN_POINT('Origin',(0.,0.,16.8452994616207));
#311=CARTESIAN_POINT('Origin',(0.,0.,0.));
#312=CARTESIAN_POINT('',(7.5,9.18485099360515E-016,0.));
#313=CARTESIAN_POINT('Origin',(0.,0.,0.));
#314=CARTESIAN_POINT('Origin',(0.,0.,30.5));
#315=CARTESIAN_POINT('',(4.5,-5.51091059616309E-016,31.));
#316=CARTESIAN_POINT('Origin',(0.,0.,31.));
#317=CARTESIAN_POINT('',(5.5,6.73555739531044E-016,30.));
#318=CARTESIAN_POINT('Origin',(0.,0.,30.));
#319=CARTESIAN_POINT('Origin',(0.,0.,18.));
#320=CARTESIAN_POINT('Origin',(0.,0.,31.));
#321=CARTESIAN_POINT('Origin',(0.,0.,-19.));
#322=CARTESIAN_POINT('',(-13.,1.59204083889156E-015,-41.));
#323=CARTESIAN_POINT('Origin',(0.,0.,-41.));
#324=CARTESIAN_POINT('',(-13.,1.59204083889156E-015,-19.));
#325=CARTESIAN_POINT('Origin',(0.,0.,-19.));
#326=CARTESIAN_POINT('Origin',(0.,0.,-41.));
#327=CARTESIAN_POINT('Origin',(0.,0.,0.));
#328=CARTESIAN_POINT('',(15.5,1.8982025386784E-015,-19.));
#329=CARTESIAN_POINT('Origin',(0.,0.,-19.));
#330=CARTESIAN_POINT('',(15.5,1.8982025386784E-015,0.));
#331=CARTESIAN_POINT('Origin',(0.,0.,0.));
#332=CARTESIAN_POINT('Origin',(0.,0.,0.));
#333=CARTESIAN_POINT('Origin',(0.,0.,-19.));
#334=UNCERTAINTY_MEASURE_WITH_UNIT(LENGTH_MEASURE(0.01),#336,
'DISTANCE_ACCURACY_VALUE',
'Maximum model space distance between geometric entities at asserted c
onnectivities');
#335=(
GEOMETRIC_REPRESENTATION_CONTEXT(3)
GLOBAL_UNCERTAINTY_ASSIGNED_CONTEXT((#334))
GLOBAL_UNIT_ASSIGNED_CONTEXT((#336,#339,#337))
REPRESENTATION_CONTEXT('','3D')
);
#336=(
LENGTH_UNIT()
NAMED_UNIT(*)
SI_UNIT(.MILLI.,.METRE.)
);
#337=(
NAMED_UNIT(*)
SI_UNIT($,.STERADIAN.)
SOLID_ANGLE_UNIT()
);
#338=DIMENSIONAL_EXPONENTS(0.,0.,0.,0.,0.,0.,0.);
#339=(
CONVERSION_BASED_UNIT('degree',#341)
NAMED_UNIT(#338)
PLANE_ANGLE_UNIT()
);
#340=(
NAMED_UNIT(*)
PLANE_ANGLE_UNIT()
SI_UNIT($,.RADIAN.)
);
#341=PLANE_ANGLE_MEASURE_WITH_UNIT(PLANE_ANGLE_MEASURE(0.01745329252),#340);
#342=SHAPE_DEFINITION_REPRESENTATION(#343,#344);
#343=PRODUCT_DEFINITION_SHAPE('',$,#346);
#344=SHAPE_REPRESENTATION('',(#191),#335);
#345=PRODUCT_DEFINITION_CONTEXT('3D Mechanical Parts',#349,'design');
#346=PRODUCT_DEFINITION('OM1M','OM1M',#347,#345);
#347=PRODUCT_DEFINITION_FORMATION('',$,#351);
#348=APPLICATION_PROTOCOL_DEFINITION('international standard',
'automotive_design',2009,#349);
#349=APPLICATION_CONTEXT(
'Core Data for Automotive Mechanical Design Process');
#350=PRODUCT_CONTEXT('3D Mechanical Parts',#349,'mechanical');
#351=PRODUCT('OM1M','OM1M',$,(#350));
#352=PRESENTATION_STYLE_ASSIGNMENT((#354));
#353=PRESENTATION_STYLE_ASSIGNMENT((#355));
#354=SURFACE_STYLE_USAGE(.BOTH.,#356);
#355=SURFACE_STYLE_USAGE(.BOTH.,#357);
#356=SURFACE_SIDE_STYLE($,(#358));
#357=SURFACE_SIDE_STYLE($,(#359));
#358=SURFACE_STYLE_FILL_AREA(#360);
#359=SURFACE_STYLE_FILL_AREA(#361);
#360=FILL_AREA_STYLE($,(#362));
#361=FILL_AREA_STYLE($,(#363));
#362=FILL_AREA_STYLE_COLOUR($,#364);
#363=FILL_AREA_STYLE_COLOUR($,#365);
#364=COLOUR_RGB('',0.309803921568627,0.309803921568627,0.309803921568627);
#365=COLOUR_RGB('',0.780392156862745,0.568627450980392,0.113725490196078);
ENDSEC;
END-ISO-10303-21;
