ISO-10303-21;
HEADER;
/* Generated by software containing ST-Developer
 * from STEP Tools, Inc. (www.steptools.com) 
 */

FILE_DESCRIPTION(
/* description */ (''),
/* implementation_level */ '2;1');

FILE_NAME(
/* name */ 
'C:\\WF-MacArtney\\Designs\\Temp\\SH\\Shrinkwrap\\OptoLink FO Boot.stp',

/* time_stamp */ '2015-12-07T11:58:36+01:00',
/* author */ ('sh'),
/* organization */ (''),
/* preprocessor_version */ 'ST-DEVELOPER v15.2',
/* originating_system */ 'Autodesk Inventor 2014',
/* authorisation */ '');

FILE_SCHEMA (('AUTOMOTIVE_DESIGN { 1 0 10303 214 3 1 1 }'));
ENDSEC;

DATA;
#10=SHAPE_REPRESENTATION_RELATIONSHIP('SRR','None',#249,#11);
#11=ADVANCED_BREP_SHAPE_REPRESENTATION($,(#135),#240);
#12=STYLED_ITEM($,(#257),#135);
#13=CONICAL_SURFACE($,#142,11.425,45.);
#14=CONICAL_SURFACE($,#152,9.175,44.9999999999999);
#15=CONICAL_SURFACE($,#156,12.,15.9453959009229);
#16=CYLINDRICAL_SURFACE($,#140,15.5);
#17=CYLINDRICAL_SURFACE($,#144,7.35);
#18=CYLINDRICAL_SURFACE($,#148,4.35);
#19=CYLINDRICAL_SURFACE($,#154,13.);
#20=CYLINDRICAL_SURFACE($,#158,11.);
#21=FACE_BOUND($,#44,.T.);
#22=FACE_BOUND($,#46,.T.);
#23=FACE_BOUND($,#48,.T.);
#24=FACE_BOUND($,#50,.T.);
#25=FACE_BOUND($,#51,.T.);
#26=FACE_BOUND($,#52,.T.);
#27=FACE_BOUND($,#54,.T.);
#28=FACE_BOUND($,#56,.T.);
#29=FACE_BOUND($,#58,.T.);
#30=FACE_BOUND($,#60,.T.);
#31=FACE_BOUND($,#62,.T.);
#32=FACE_BOUND($,#64,.T.);
#33=FACE_OUTER_BOUND($,#43,.T.);
#34=FACE_OUTER_BOUND($,#45,.T.);
#35=FACE_OUTER_BOUND($,#47,.T.);
#36=FACE_OUTER_BOUND($,#49,.T.);
#37=FACE_OUTER_BOUND($,#53,.T.);
#38=FACE_OUTER_BOUND($,#55,.T.);
#39=FACE_OUTER_BOUND($,#57,.T.);
#40=FACE_OUTER_BOUND($,#59,.T.);
#41=FACE_OUTER_BOUND($,#61,.T.);
#42=FACE_OUTER_BOUND($,#63,.T.);
#43=EDGE_LOOP($,(#98));
#44=EDGE_LOOP($,(#99));
#45=EDGE_LOOP($,(#100));
#46=EDGE_LOOP($,(#101));
#47=EDGE_LOOP($,(#102));
#48=EDGE_LOOP($,(#103));
#49=EDGE_LOOP($,(#104));
#50=EDGE_LOOP($,(#105));
#51=EDGE_LOOP($,(#106));
#52=EDGE_LOOP($,(#107));
#53=EDGE_LOOP($,(#108));
#54=EDGE_LOOP($,(#109));
#55=EDGE_LOOP($,(#110));
#56=EDGE_LOOP($,(#111));
#57=EDGE_LOOP($,(#112));
#58=EDGE_LOOP($,(#113));
#59=EDGE_LOOP($,(#114));
#60=EDGE_LOOP($,(#115));
#61=EDGE_LOOP($,(#116));
#62=EDGE_LOOP($,(#117));
#63=EDGE_LOOP($,(#118));
#64=EDGE_LOOP($,(#119));
#65=CIRCLE($,#138,15.5);
#66=CIRCLE($,#139,11.);
#67=CIRCLE($,#141,15.5);
#68=CIRCLE($,#143,7.35);
#69=CIRCLE($,#145,7.35);
#70=CIRCLE($,#147,4.35);
#71=CIRCLE($,#149,4.35);
#72=CIRCLE($,#151,5.35);
#73=CIRCLE($,#153,13.);
#74=CIRCLE($,#155,13.);
#75=CIRCLE($,#157,11.);
#76=VERTEX_POINT($,#207);
#77=VERTEX_POINT($,#209);
#78=VERTEX_POINT($,#212);
#79=VERTEX_POINT($,#215);
#80=VERTEX_POINT($,#218);
#81=VERTEX_POINT($,#221);
#82=VERTEX_POINT($,#224);
#83=VERTEX_POINT($,#227);
#84=VERTEX_POINT($,#230);
#85=VERTEX_POINT($,#233);
#86=VERTEX_POINT($,#236);
#87=EDGE_CURVE($,#76,#76,#65,.T.);
#88=EDGE_CURVE($,#77,#77,#66,.T.);
#89=EDGE_CURVE($,#78,#78,#67,.T.);
#90=EDGE_CURVE($,#79,#79,#68,.T.);
#91=EDGE_CURVE($,#80,#80,#69,.T.);
#92=EDGE_CURVE($,#81,#81,#70,.T.);
#93=EDGE_CURVE($,#82,#82,#71,.T.);
#94=EDGE_CURVE($,#83,#83,#72,.T.);
#95=EDGE_CURVE($,#84,#84,#73,.T.);
#96=EDGE_CURVE($,#85,#85,#74,.T.);
#97=EDGE_CURVE($,#86,#86,#75,.T.);
#98=ORIENTED_EDGE($,*,*,#87,.F.);
#99=ORIENTED_EDGE($,*,*,#88,.T.);
#100=ORIENTED_EDGE($,*,*,#89,.F.);
#101=ORIENTED_EDGE($,*,*,#87,.T.);
#102=ORIENTED_EDGE($,*,*,#90,.F.);
#103=ORIENTED_EDGE($,*,*,#89,.T.);
#104=ORIENTED_EDGE($,*,*,#91,.F.);
#105=ORIENTED_EDGE($,*,*,#90,.T.);
#106=ORIENTED_EDGE($,*,*,#92,.F.);
#107=ORIENTED_EDGE($,*,*,#91,.T.);
#108=ORIENTED_EDGE($,*,*,#93,.F.);
#109=ORIENTED_EDGE($,*,*,#92,.T.);
#110=ORIENTED_EDGE($,*,*,#94,.F.);
#111=ORIENTED_EDGE($,*,*,#93,.T.);
#112=ORIENTED_EDGE($,*,*,#95,.F.);
#113=ORIENTED_EDGE($,*,*,#94,.T.);
#114=ORIENTED_EDGE($,*,*,#96,.F.);
#115=ORIENTED_EDGE($,*,*,#95,.T.);
#116=ORIENTED_EDGE($,*,*,#97,.F.);
#117=ORIENTED_EDGE($,*,*,#96,.T.);
#118=ORIENTED_EDGE($,*,*,#88,.F.);
#119=ORIENTED_EDGE($,*,*,#97,.T.);
#120=PLANE($,#137);
#121=PLANE($,#146);
#122=PLANE($,#150);
#123=ADVANCED_FACE($,(#33,#21),#120,.T.);
#124=ADVANCED_FACE($,(#34,#22),#16,.T.);
#125=ADVANCED_FACE($,(#35,#23),#13,.T.);
#126=ADVANCED_FACE($,(#36,#24),#17,.T.);
#127=ADVANCED_FACE($,(#25,#26),#121,.T.);
#128=ADVANCED_FACE($,(#37,#27),#18,.F.);
#129=ADVANCED_FACE($,(#38,#28),#122,.T.);
#130=ADVANCED_FACE($,(#39,#29),#14,.F.);
#131=ADVANCED_FACE($,(#40,#30),#19,.F.);
#132=ADVANCED_FACE($,(#41,#31),#15,.F.);
#133=ADVANCED_FACE($,(#42,#32),#20,.F.);
#134=CLOSED_SHELL($,(#123,#124,#125,#126,#127,#128,#129,#130,#131,#132,
#133));
#135=MANIFOLD_SOLID_BREP('Solid2',#134);
#136=AXIS2_PLACEMENT_3D('placement',#205,#159,#160);
#137=AXIS2_PLACEMENT_3D($,#206,#161,#162);
#138=AXIS2_PLACEMENT_3D($,#208,#163,#164);
#139=AXIS2_PLACEMENT_3D($,#210,#165,#166);
#140=AXIS2_PLACEMENT_3D($,#211,#167,#168);
#141=AXIS2_PLACEMENT_3D($,#213,#169,#170);
#142=AXIS2_PLACEMENT_3D($,#214,#171,#172);
#143=AXIS2_PLACEMENT_3D($,#216,#173,#174);
#144=AXIS2_PLACEMENT_3D($,#217,#175,#176);
#145=AXIS2_PLACEMENT_3D($,#219,#177,#178);
#146=AXIS2_PLACEMENT_3D($,#220,#179,#180);
#147=AXIS2_PLACEMENT_3D($,#222,#181,#182);
#148=AXIS2_PLACEMENT_3D($,#223,#183,#184);
#149=AXIS2_PLACEMENT_3D($,#225,#185,#186);
#150=AXIS2_PLACEMENT_3D($,#226,#187,#188);
#151=AXIS2_PLACEMENT_3D($,#228,#189,#190);
#152=AXIS2_PLACEMENT_3D($,#229,#191,#192);
#153=AXIS2_PLACEMENT_3D($,#231,#193,#194);
#154=AXIS2_PLACEMENT_3D($,#232,#195,#196);
#155=AXIS2_PLACEMENT_3D($,#234,#197,#198);
#156=AXIS2_PLACEMENT_3D($,#235,#199,#200);
#157=AXIS2_PLACEMENT_3D($,#237,#201,#202);
#158=AXIS2_PLACEMENT_3D($,#238,#203,#204);
#159=DIRECTION('axis',(0.,0.,1.));
#160=DIRECTION('refdir',(1.,0.,0.));
#161=DIRECTION('center_axis',(-1.,0.,0.));
#162=DIRECTION('ref_axis',(0.,0.,1.));
#163=DIRECTION('center_axis',(1.,0.,0.));
#164=DIRECTION('ref_axis',(0.,1.,0.));
#165=DIRECTION('center_axis',(1.,0.,0.));
#166=DIRECTION('ref_axis',(0.,1.,0.));
#167=DIRECTION('center_axis',(1.,0.,0.));
#168=DIRECTION('ref_axis',(0.,1.,0.));
#169=DIRECTION('center_axis',(1.,0.,0.));
#170=DIRECTION('ref_axis',(0.,1.,0.));
#171=DIRECTION('center_axis',(-1.,0.,0.));
#172=DIRECTION('ref_axis',(0.,1.,0.));
#173=DIRECTION('center_axis',(1.,0.,0.));
#174=DIRECTION('ref_axis',(0.,1.,0.));
#175=DIRECTION('center_axis',(1.,0.,0.));
#176=DIRECTION('ref_axis',(0.,1.,0.));
#177=DIRECTION('center_axis',(1.,0.,0.));
#178=DIRECTION('ref_axis',(0.,1.,0.));
#179=DIRECTION('center_axis',(1.,0.,0.));
#180=DIRECTION('ref_axis',(0.,0.,-1.));
#181=DIRECTION('center_axis',(1.,0.,0.));
#182=DIRECTION('ref_axis',(0.,1.,0.));
#183=DIRECTION('center_axis',(1.,0.,0.));
#184=DIRECTION('ref_axis',(0.,1.,0.));
#185=DIRECTION('center_axis',(1.,0.,0.));
#186=DIRECTION('ref_axis',(0.,1.,0.));
#187=DIRECTION('center_axis',(-1.,0.,0.));
#188=DIRECTION('ref_axis',(0.,0.,1.));
#189=DIRECTION('center_axis',(1.,0.,0.));
#190=DIRECTION('ref_axis',(0.,1.,0.));
#191=DIRECTION('center_axis',(-1.,0.,0.));
#192=DIRECTION('ref_axis',(0.,1.,0.));
#193=DIRECTION('center_axis',(1.,0.,0.));
#194=DIRECTION('ref_axis',(0.,1.,0.));
#195=DIRECTION('center_axis',(1.,0.,0.));
#196=DIRECTION('ref_axis',(0.,1.,0.));
#197=DIRECTION('center_axis',(1.,0.,0.));
#198=DIRECTION('ref_axis',(0.,1.,0.));
#199=DIRECTION('center_axis',(1.,0.,0.));
#200=DIRECTION('ref_axis',(0.,1.,0.));
#201=DIRECTION('center_axis',(1.,0.,0.));
#202=DIRECTION('ref_axis',(0.,1.,0.));
#203=DIRECTION('center_axis',(1.,0.,0.));
#204=DIRECTION('ref_axis',(0.,1.,0.));
#205=CARTESIAN_POINT('',(0.,0.,0.));
#206=CARTESIAN_POINT('Origin',(4.93038065763133E-032,13.25,0.));
#207=CARTESIAN_POINT('',(9.86076131526266E-032,15.5,0.));
#208=CARTESIAN_POINT('Origin',(0.,0.,0.));
#209=CARTESIAN_POINT('',(0.,11.,0.));
#210=CARTESIAN_POINT('Origin',(0.,0.,0.));
#211=CARTESIAN_POINT('Origin',(47.5784271247462,0.,0.));
#212=CARTESIAN_POINT('',(95.1568542494924,15.5,0.));
#213=CARTESIAN_POINT('Origin',(95.1568542494924,0.,0.));
#214=CARTESIAN_POINT('Origin',(99.2318542494924,0.,0.));
#215=CARTESIAN_POINT('',(103.306854249492,7.35,0.));
#216=CARTESIAN_POINT('Origin',(103.306854249492,0.,0.));
#217=CARTESIAN_POINT('Origin',(111.653427124746,0.,0.));
#218=CARTESIAN_POINT('',(120.,7.35,0.));
#219=CARTESIAN_POINT('Origin',(120.,0.,0.));
#220=CARTESIAN_POINT('Origin',(120.,5.85,0.));
#221=CARTESIAN_POINT('',(120.,4.35,0.));
#222=CARTESIAN_POINT('Origin',(120.,0.,0.));
#223=CARTESIAN_POINT('Origin',(109.825,0.,0.));
#224=CARTESIAN_POINT('',(99.65,4.35,0.));
#225=CARTESIAN_POINT('Origin',(99.65,0.,0.));
#226=CARTESIAN_POINT('Origin',(99.65,4.85,0.));
#227=CARTESIAN_POINT('',(99.65,5.35,0.));
#228=CARTESIAN_POINT('Origin',(99.65,0.,0.));
#229=CARTESIAN_POINT('Origin',(95.825,0.,0.));
#230=CARTESIAN_POINT('',(92.,13.,0.));
#231=CARTESIAN_POINT('Origin',(92.,0.,0.));
#232=CARTESIAN_POINT('Origin',(61.,0.,0.));
#233=CARTESIAN_POINT('',(30.,13.,0.));
#234=CARTESIAN_POINT('Origin',(30.,0.,0.));
#235=CARTESIAN_POINT('Origin',(26.5,0.,0.));
#236=CARTESIAN_POINT('',(23.,11.,0.));
#237=CARTESIAN_POINT('Origin',(23.,0.,0.));
#238=CARTESIAN_POINT('Origin',(11.5,0.,0.));
#239=UNCERTAINTY_MEASURE_WITH_UNIT(LENGTH_MEASURE(0.01),#241,
'DISTANCE_ACCURACY_VALUE',
'Maximum model space distance between geometric entities at asserted c
onnectivities');
#240=(
GEOMETRIC_REPRESENTATION_CONTEXT(3)
GLOBAL_UNCERTAINTY_ASSIGNED_CONTEXT((#239))
GLOBAL_UNIT_ASSIGNED_CONTEXT((#241,#244,#242))
REPRESENTATION_CONTEXT('','3D')
);
#241=(
LENGTH_UNIT()
NAMED_UNIT(*)
SI_UNIT(.MILLI.,.METRE.)
);
#242=(
NAMED_UNIT(*)
SI_UNIT($,.STERADIAN.)
SOLID_ANGLE_UNIT()
);
#243=DIMENSIONAL_EXPONENTS(0.,0.,0.,0.,0.,0.,0.);
#244=(
CONVERSION_BASED_UNIT('degree',#246)
NAMED_UNIT(#243)
PLANE_ANGLE_UNIT()
);
#245=(
NAMED_UNIT(*)
PLANE_ANGLE_UNIT()
SI_UNIT($,.RADIAN.)
);
#246=PLANE_ANGLE_MEASURE_WITH_UNIT(PLANE_ANGLE_MEASURE(0.01745329252),#245);
#247=SHAPE_DEFINITION_REPRESENTATION(#248,#249);
#248=PRODUCT_DEFINITION_SHAPE('',$,#251);
#249=SHAPE_REPRESENTATION('',(#136),#240);
#250=PRODUCT_DEFINITION_CONTEXT('3D Mechanical Parts',#254,'design');
#251=PRODUCT_DEFINITION('0023080612-001_str\X\E6kket',
'0023080612-001_str\X\E6kket',#252,#250);
#252=PRODUCT_DEFINITION_FORMATION('',$,#256);
#253=APPLICATION_PROTOCOL_DEFINITION('international standard',
'automotive_design',2009,#254);
#254=APPLICATION_CONTEXT(
'Core Data for Automotive Mechanical Design Process');
#255=PRODUCT_CONTEXT('3D Mechanical Parts',#254,'mechanical');
#256=PRODUCT('0023080612-001_str\X\E6kket','0023080612-001_str\X\E6kke
t',$,(#255));
#257=PRESENTATION_STYLE_ASSIGNMENT((#258));
#258=SURFACE_STYLE_USAGE(.BOTH.,#259);
#259=SURFACE_SIDE_STYLE($,(#260));
#260=SURFACE_STYLE_FILL_AREA(#261);
#261=FILL_AREA_STYLE($,(#262));
#262=FILL_AREA_STYLE_COLOUR($,#263);
#263=COLOUR_RGB('',0.309803921568627,0.309803921568627,0.309803921568627);
ENDSEC;
END-ISO-10303-21;
