ISO-10303-21;
HEADER;
/* Generated by software containing ST-Developer
 * from STEP Tools, Inc. (www.steptools.com) 
 */

FILE_DESCRIPTION(
/* description */ (''),
/* implementation_level */ '2;1');

FILE_NAME(
/* name */ 
'W:\\Step files Subconn 11-11-2014\\Circular\\Inline (IL)\\MCIL1M.stp',

/* time_stamp */ '2014-11-26T09:32:15+01:00',
/* author */ ('sh'),
/* organization */ (''),
/* preprocessor_version */ 'ST-DEVELOPER v15.2',
/* originating_system */ 'Autodesk Inventor 2014',
/* authorisation */ '');

FILE_SCHEMA (('AUTOMOTIVE_DESIGN { 1 0 10303 214 3 1 1 }'));
ENDSEC;

DATA;
#10=SHAPE_REPRESENTATION_RELATIONSHIP('SRR','None',#258,#11);
#11=ADVANCED_BREP_SHAPE_REPRESENTATION($,(#140),#249);
#12=PLANE($,#147);
#13=PLANE($,#153);
#14=PLANE($,#159);
#15=PLANE($,#161);
#16=PLANE($,#164);
#17=CYLINDRICAL_SURFACE($,#145,0.95);
#18=CYLINDRICAL_SURFACE($,#151,1.6);
#19=CYLINDRICAL_SURFACE($,#157,1.4);
#20=CYLINDRICAL_SURFACE($,#162,3.2);
#21=FACE_BOUND($,#44,.T.);
#22=FACE_BOUND($,#46,.T.);
#23=FACE_BOUND($,#49,.T.);
#24=FACE_BOUND($,#51,.T.);
#25=FACE_BOUND($,#52,.T.);
#26=FACE_BOUND($,#53,.T.);
#27=FACE_BOUND($,#55,.T.);
#28=FACE_BOUND($,#57,.T.);
#29=FACE_BOUND($,#59,.T.);
#30=FACE_BOUND($,#62,.T.);
#31=FACE_BOUND($,#63,.T.);
#32=FACE_BOUND($,#64,.T.);
#33=FACE_OUTER_BOUND($,#43,.T.);
#34=FACE_OUTER_BOUND($,#45,.T.);
#35=FACE_OUTER_BOUND($,#47,.T.);
#36=FACE_OUTER_BOUND($,#48,.T.);
#37=FACE_OUTER_BOUND($,#50,.T.);
#38=FACE_OUTER_BOUND($,#54,.T.);
#39=FACE_OUTER_BOUND($,#56,.T.);
#40=FACE_OUTER_BOUND($,#58,.T.);
#41=FACE_OUTER_BOUND($,#60,.T.);
#42=FACE_OUTER_BOUND($,#61,.T.);
#43=EDGE_LOOP($,(#98));
#44=EDGE_LOOP($,(#99));
#45=EDGE_LOOP($,(#100));
#46=EDGE_LOOP($,(#101));
#47=EDGE_LOOP($,(#102));
#48=EDGE_LOOP($,(#103));
#49=EDGE_LOOP($,(#104));
#50=EDGE_LOOP($,(#105));
#51=EDGE_LOOP($,(#106));
#52=EDGE_LOOP($,(#107));
#53=EDGE_LOOP($,(#108));
#54=EDGE_LOOP($,(#109));
#55=EDGE_LOOP($,(#110));
#56=EDGE_LOOP($,(#111));
#57=EDGE_LOOP($,(#112));
#58=EDGE_LOOP($,(#113));
#59=EDGE_LOOP($,(#114));
#60=EDGE_LOOP($,(#115));
#61=EDGE_LOOP($,(#116));
#62=EDGE_LOOP($,(#117));
#63=EDGE_LOOP($,(#118));
#64=EDGE_LOOP($,(#119));
#65=CIRCLE($,#143,0.65);
#66=CIRCLE($,#144,0.95);
#67=CIRCLE($,#146,0.95);
#68=CIRCLE($,#149,1.);
#69=CIRCLE($,#150,1.6);
#70=CIRCLE($,#152,1.6);
#71=CIRCLE($,#155,1.4);
#72=CIRCLE($,#156,2.4);
#73=CIRCLE($,#158,1.4);
#74=CIRCLE($,#160,3.2);
#75=CIRCLE($,#163,3.2);
#76=VERTEX_POINT($,#215);
#77=VERTEX_POINT($,#217);
#78=VERTEX_POINT($,#220);
#79=VERTEX_POINT($,#224);
#80=VERTEX_POINT($,#226);
#81=VERTEX_POINT($,#229);
#82=VERTEX_POINT($,#233);
#83=VERTEX_POINT($,#235);
#84=VERTEX_POINT($,#238);
#85=VERTEX_POINT($,#241);
#86=VERTEX_POINT($,#245);
#87=EDGE_CURVE($,#76,#76,#65,.T.);
#88=EDGE_CURVE($,#77,#77,#66,.T.);
#89=EDGE_CURVE($,#78,#78,#67,.T.);
#90=EDGE_CURVE($,#79,#79,#68,.T.);
#91=EDGE_CURVE($,#80,#80,#69,.T.);
#92=EDGE_CURVE($,#81,#81,#70,.T.);
#93=EDGE_CURVE($,#82,#82,#71,.T.);
#94=EDGE_CURVE($,#83,#83,#72,.T.);
#95=EDGE_CURVE($,#84,#84,#73,.T.);
#96=EDGE_CURVE($,#85,#85,#74,.T.);
#97=EDGE_CURVE($,#86,#86,#75,.T.);
#98=ORIENTED_EDGE($,*,*,#87,.T.);
#99=ORIENTED_EDGE($,*,*,#88,.T.);
#100=ORIENTED_EDGE($,*,*,#89,.F.);
#101=ORIENTED_EDGE($,*,*,#88,.F.);
#102=ORIENTED_EDGE($,*,*,#87,.F.);
#103=ORIENTED_EDGE($,*,*,#90,.T.);
#104=ORIENTED_EDGE($,*,*,#91,.T.);
#105=ORIENTED_EDGE($,*,*,#92,.F.);
#106=ORIENTED_EDGE($,*,*,#91,.F.);
#107=ORIENTED_EDGE($,*,*,#89,.T.);
#108=ORIENTED_EDGE($,*,*,#90,.F.);
#109=ORIENTED_EDGE($,*,*,#93,.T.);
#110=ORIENTED_EDGE($,*,*,#94,.T.);
#111=ORIENTED_EDGE($,*,*,#95,.T.);
#112=ORIENTED_EDGE($,*,*,#93,.F.);
#113=ORIENTED_EDGE($,*,*,#96,.T.);
#114=ORIENTED_EDGE($,*,*,#94,.F.);
#115=ORIENTED_EDGE($,*,*,#95,.F.);
#116=ORIENTED_EDGE($,*,*,#97,.T.);
#117=ORIENTED_EDGE($,*,*,#96,.F.);
#118=ORIENTED_EDGE($,*,*,#92,.T.);
#119=ORIENTED_EDGE($,*,*,#97,.F.);
#120=CONICAL_SURFACE($,#142,0.8,45.0000000000002);
#121=CONICAL_SURFACE($,#148,1.3,45.);
#122=CONICAL_SURFACE($,#154,1.9,45.);
#123=STYLED_ITEM($,(#267),#127);
#124=STYLED_ITEM($,(#267),#128);
#125=STYLED_ITEM($,(#267),#129);
#126=STYLED_ITEM($,(#266),#140);
#127=ADVANCED_FACE($,(#33,#21),#120,.T.);
#128=ADVANCED_FACE($,(#34,#22),#17,.T.);
#129=ADVANCED_FACE($,(#35),#12,.F.);
#130=ADVANCED_FACE($,(#36,#23),#121,.T.);
#131=ADVANCED_FACE($,(#37,#24),#18,.T.);
#132=ADVANCED_FACE($,(#25,#26),#13,.F.);
#133=ADVANCED_FACE($,(#38,#27),#122,.T.);
#134=ADVANCED_FACE($,(#39,#28),#19,.T.);
#135=ADVANCED_FACE($,(#40,#29),#14,.T.);
#136=ADVANCED_FACE($,(#41),#15,.F.);
#137=ADVANCED_FACE($,(#42,#30),#20,.T.);
#138=ADVANCED_FACE($,(#31,#32),#16,.F.);
#139=CLOSED_SHELL($,(#127,#128,#129,#130,#131,#132,#133,#134,#135,#136,
#137,#138));
#140=MANIFOLD_SOLID_BREP('Solid2',#139);
#141=AXIS2_PLACEMENT_3D('placement',#213,#165,#166);
#142=AXIS2_PLACEMENT_3D($,#214,#167,#168);
#143=AXIS2_PLACEMENT_3D($,#216,#169,#170);
#144=AXIS2_PLACEMENT_3D($,#218,#171,#172);
#145=AXIS2_PLACEMENT_3D($,#219,#173,#174);
#146=AXIS2_PLACEMENT_3D($,#221,#175,#176);
#147=AXIS2_PLACEMENT_3D($,#222,#177,#178);
#148=AXIS2_PLACEMENT_3D($,#223,#179,#180);
#149=AXIS2_PLACEMENT_3D($,#225,#181,#182);
#150=AXIS2_PLACEMENT_3D($,#227,#183,#184);
#151=AXIS2_PLACEMENT_3D($,#228,#185,#186);
#152=AXIS2_PLACEMENT_3D($,#230,#187,#188);
#153=AXIS2_PLACEMENT_3D($,#231,#189,#190);
#154=AXIS2_PLACEMENT_3D($,#232,#191,#192);
#155=AXIS2_PLACEMENT_3D($,#234,#193,#194);
#156=AXIS2_PLACEMENT_3D($,#236,#195,#196);
#157=AXIS2_PLACEMENT_3D($,#237,#197,#198);
#158=AXIS2_PLACEMENT_3D($,#239,#199,#200);
#159=AXIS2_PLACEMENT_3D($,#240,#201,#202);
#160=AXIS2_PLACEMENT_3D($,#242,#203,#204);
#161=AXIS2_PLACEMENT_3D($,#243,#205,#206);
#162=AXIS2_PLACEMENT_3D($,#244,#207,#208);
#163=AXIS2_PLACEMENT_3D($,#246,#209,#210);
#164=AXIS2_PLACEMENT_3D($,#247,#211,#212);
#165=DIRECTION('axis',(0.,0.,1.));
#166=DIRECTION('refdir',(1.,0.,0.));
#167=DIRECTION('center_axis',(0.,0.,-1.));
#168=DIRECTION('ref_axis',(-1.,0.,0.));
#169=DIRECTION('center_axis',(0.,0.,-1.));
#170=DIRECTION('ref_axis',(-1.,0.,0.));
#171=DIRECTION('center_axis',(0.,0.,1.));
#172=DIRECTION('ref_axis',(-1.,0.,0.));
#173=DIRECTION('center_axis',(0.,0.,1.));
#174=DIRECTION('ref_axis',(-1.,0.,0.));
#175=DIRECTION('center_axis',(0.,0.,-1.));
#176=DIRECTION('ref_axis',(-1.,0.,0.));
#177=DIRECTION('center_axis',(0.,0.,-1.));
#178=DIRECTION('ref_axis',(-1.,0.,0.));
#179=DIRECTION('center_axis',(0.,0.,-1.));
#180=DIRECTION('ref_axis',(-1.,0.,0.));
#181=DIRECTION('center_axis',(0.,0.,-1.));
#182=DIRECTION('ref_axis',(-1.,0.,0.));
#183=DIRECTION('center_axis',(0.,0.,1.));
#184=DIRECTION('ref_axis',(-1.,0.,0.));
#185=DIRECTION('center_axis',(0.,0.,1.));
#186=DIRECTION('ref_axis',(-1.,0.,0.));
#187=DIRECTION('center_axis',(0.,0.,-1.));
#188=DIRECTION('ref_axis',(-1.,0.,0.));
#189=DIRECTION('center_axis',(0.,0.,-1.));
#190=DIRECTION('ref_axis',(-1.,0.,0.));
#191=DIRECTION('center_axis',(0.,0.,1.));
#192=DIRECTION('ref_axis',(1.,0.,0.));
#193=DIRECTION('center_axis',(0.,0.,1.));
#194=DIRECTION('ref_axis',(1.,0.,0.));
#195=DIRECTION('center_axis',(0.,0.,-1.));
#196=DIRECTION('ref_axis',(1.,0.,0.));
#197=DIRECTION('center_axis',(0.,0.,-1.));
#198=DIRECTION('ref_axis',(1.,0.,0.));
#199=DIRECTION('center_axis',(0.,0.,1.));
#200=DIRECTION('ref_axis',(1.,0.,0.));
#201=DIRECTION('center_axis',(0.,0.,-1.));
#202=DIRECTION('ref_axis',(-1.,0.,0.));
#203=DIRECTION('center_axis',(0.,0.,-1.));
#204=DIRECTION('ref_axis',(-1.,0.,0.));
#205=DIRECTION('center_axis',(0.,0.,1.));
#206=DIRECTION('ref_axis',(1.,0.,0.));
#207=DIRECTION('center_axis',(0.,0.,1.));
#208=DIRECTION('ref_axis',(-1.,0.,0.));
#209=DIRECTION('center_axis',(0.,0.,-1.));
#210=DIRECTION('ref_axis',(-1.,0.,0.));
#211=DIRECTION('center_axis',(0.,0.,-1.));
#212=DIRECTION('ref_axis',(-1.,0.,0.));
#213=CARTESIAN_POINT('',(0.,0.,0.));
#214=CARTESIAN_POINT('Origin',(0.,0.,33.15));
#215=CARTESIAN_POINT('',(0.65,-7.9602041944578E-017,33.3));
#216=CARTESIAN_POINT('Origin',(0.,0.,33.3));
#217=CARTESIAN_POINT('',(0.95,1.16341445918999E-016,33.));
#218=CARTESIAN_POINT('Origin',(0.,0.,33.));
#219=CARTESIAN_POINT('Origin',(0.,0.,28.5));
#220=CARTESIAN_POINT('',(0.95,1.16341445918999E-016,28.5));
#221=CARTESIAN_POINT('Origin',(0.,0.,28.5));
#222=CARTESIAN_POINT('Origin',(0.,0.,33.3));
#223=CARTESIAN_POINT('Origin',(0.,0.,28.2));
#224=CARTESIAN_POINT('',(1.,-1.22464679914735E-016,28.5));
#225=CARTESIAN_POINT('Origin',(0.,0.,28.5));
#226=CARTESIAN_POINT('',(1.6,1.95943487863576E-016,27.9));
#227=CARTESIAN_POINT('Origin',(0.,0.,27.9));
#228=CARTESIAN_POINT('Origin',(0.,0.,19.));
#229=CARTESIAN_POINT('',(1.6,1.95943487863576E-016,19.));
#230=CARTESIAN_POINT('Origin',(0.,0.,19.));
#231=CARTESIAN_POINT('Origin',(0.,0.,28.5));
#232=CARTESIAN_POINT('Origin',(0.,0.,-0.5));
#233=CARTESIAN_POINT('',(-1.4,-1.71450551880629E-016,-1.));
#234=CARTESIAN_POINT('Origin',(0.,0.,-1.));
#235=CARTESIAN_POINT('',(-2.4,2.93915231795365E-016,0.));
#236=CARTESIAN_POINT('Origin',(0.,0.,0.));
#237=CARTESIAN_POINT('Origin',(0.,0.,0.));
#238=CARTESIAN_POINT('',(-1.4,1.71450551880629E-016,-55.));
#239=CARTESIAN_POINT('Origin',(0.,0.,-55.));
#240=CARTESIAN_POINT('Origin',(0.,0.,0.));
#241=CARTESIAN_POINT('',(3.2,3.91886975727153E-016,0.));
#242=CARTESIAN_POINT('Origin',(0.,0.,0.));
#243=CARTESIAN_POINT('Origin',(0.,0.,-55.));
#244=CARTESIAN_POINT('Origin',(0.,0.,0.));
#245=CARTESIAN_POINT('',(3.2,3.91886975727153E-016,19.));
#246=CARTESIAN_POINT('Origin',(0.,0.,19.));
#247=CARTESIAN_POINT('Origin',(0.,0.,19.));
#248=UNCERTAINTY_MEASURE_WITH_UNIT(LENGTH_MEASURE(0.01),#250,
'DISTANCE_ACCURACY_VALUE',
'Maximum model space distance between geometric entities at asserted c
onnectivities');
#249=(
GEOMETRIC_REPRESENTATION_CONTEXT(3)
GLOBAL_UNCERTAINTY_ASSIGNED_CONTEXT((#248))
GLOBAL_UNIT_ASSIGNED_CONTEXT((#250,#253,#251))
REPRESENTATION_CONTEXT('','3D')
);
#250=(
LENGTH_UNIT()
NAMED_UNIT(*)
SI_UNIT(.MILLI.,.METRE.)
);
#251=(
NAMED_UNIT(*)
SI_UNIT($,.STERADIAN.)
SOLID_ANGLE_UNIT()
);
#252=DIMENSIONAL_EXPONENTS(0.,0.,0.,0.,0.,0.,0.);
#253=(
CONVERSION_BASED_UNIT('degree',#255)
NAMED_UNIT(#252)
PLANE_ANGLE_UNIT()
);
#254=(
NAMED_UNIT(*)
PLANE_ANGLE_UNIT()
SI_UNIT($,.RADIAN.)
);
#255=PLANE_ANGLE_MEASURE_WITH_UNIT(PLANE_ANGLE_MEASURE(0.01745329252),#254);
#256=SHAPE_DEFINITION_REPRESENTATION(#257,#258);
#257=PRODUCT_DEFINITION_SHAPE('',$,#260);
#258=SHAPE_REPRESENTATION('',(#141),#249);
#259=PRODUCT_DEFINITION_CONTEXT('3D Mechanical Parts',#263,'design');
#260=PRODUCT_DEFINITION('MCIL1M','MCIL1M',#261,#259);
#261=PRODUCT_DEFINITION_FORMATION('',$,#265);
#262=APPLICATION_PROTOCOL_DEFINITION('international standard',
'automotive_design',2009,#263);
#263=APPLICATION_CONTEXT(
'Core Data for Automotive Mechanical Design Process');
#264=PRODUCT_CONTEXT('3D Mechanical Parts',#263,'mechanical');
#265=PRODUCT('MCIL1M','MCIL1M',$,(#264));
#266=PRESENTATION_STYLE_ASSIGNMENT((#268));
#267=PRESENTATION_STYLE_ASSIGNMENT((#269));
#268=SURFACE_STYLE_USAGE(.BOTH.,#270);
#269=SURFACE_STYLE_USAGE(.BOTH.,#271);
#270=SURFACE_SIDE_STYLE($,(#272));
#271=SURFACE_SIDE_STYLE($,(#273));
#272=SURFACE_STYLE_FILL_AREA(#274);
#273=SURFACE_STYLE_FILL_AREA(#275);
#274=FILL_AREA_STYLE($,(#276));
#275=FILL_AREA_STYLE($,(#277));
#276=FILL_AREA_STYLE_COLOUR($,#278);
#277=FILL_AREA_STYLE_COLOUR($,#279);
#278=COLOUR_RGB('',0.309803921568627,0.309803921568627,0.309803921568627);
#279=COLOUR_RGB('',0.780392156862745,0.568627450980392,0.113725490196078);
ENDSEC;
END-ISO-10303-21;
