ISO-10303-21;
HEADER;
/* Generated by software containing ST-Developer
 * from STEP Tools, Inc. (www.steptools.com) 
 */

FILE_DESCRIPTION(
/* description */ (''),
/* implementation_level */ '2;1');

FILE_NAME(
/* name */ 
'W:\\Step files Subconn 11-11-2014\\Ass\\Overmould boot (OMB)\\OMBA.st
p',
/* time_stamp */ '2014-11-27T16:18:31+01:00',
/* author */ ('sh'),
/* organization */ (''),
/* preprocessor_version */ 'ST-DEVELOPER v15.2',
/* originating_system */ 'Autodesk Inventor 2014',
/* authorisation */ '');

FILE_SCHEMA (('AUTOMOTIVE_DESIGN { 1 0 10303 214 3 1 1 }'));
ENDSEC;

DATA;
#10=SHAPE_REPRESENTATION_RELATIONSHIP('SRR','None',#329,#11);
#11=ADVANCED_BREP_SHAPE_REPRESENTATION($,(#179),#320);
#12=STYLED_ITEM($,(#337),#179);
#13=CYLINDRICAL_SURFACE($,#206,7.4);
#14=CYLINDRICAL_SURFACE($,#208,11.);
#15=PLANE($,#186);
#16=PLANE($,#190);
#17=PLANE($,#194);
#18=PLANE($,#198);
#19=PLANE($,#202);
#20=PLANE($,#210);
#21=FACE_BOUND($,#52,.T.);
#22=FACE_BOUND($,#54,.T.);
#23=FACE_BOUND($,#56,.T.);
#24=FACE_BOUND($,#58,.T.);
#25=FACE_BOUND($,#60,.T.);
#26=FACE_BOUND($,#62,.T.);
#27=FACE_BOUND($,#64,.T.);
#28=FACE_BOUND($,#66,.T.);
#29=FACE_BOUND($,#68,.T.);
#30=FACE_BOUND($,#70,.T.);
#31=FACE_BOUND($,#72,.T.);
#32=FACE_BOUND($,#74,.T.);
#33=FACE_BOUND($,#76,.T.);
#34=FACE_BOUND($,#78,.T.);
#35=FACE_BOUND($,#79,.T.);
#36=FACE_BOUND($,#80,.T.);
#37=FACE_OUTER_BOUND($,#51,.T.);
#38=FACE_OUTER_BOUND($,#53,.T.);
#39=FACE_OUTER_BOUND($,#55,.T.);
#40=FACE_OUTER_BOUND($,#57,.T.);
#41=FACE_OUTER_BOUND($,#59,.T.);
#42=FACE_OUTER_BOUND($,#61,.T.);
#43=FACE_OUTER_BOUND($,#63,.T.);
#44=FACE_OUTER_BOUND($,#65,.T.);
#45=FACE_OUTER_BOUND($,#67,.T.);
#46=FACE_OUTER_BOUND($,#69,.T.);
#47=FACE_OUTER_BOUND($,#71,.T.);
#48=FACE_OUTER_BOUND($,#73,.T.);
#49=FACE_OUTER_BOUND($,#75,.T.);
#50=FACE_OUTER_BOUND($,#77,.T.);
#51=EDGE_LOOP($,(#126));
#52=EDGE_LOOP($,(#127));
#53=EDGE_LOOP($,(#128));
#54=EDGE_LOOP($,(#129));
#55=EDGE_LOOP($,(#130));
#56=EDGE_LOOP($,(#131));
#57=EDGE_LOOP($,(#132));
#58=EDGE_LOOP($,(#133));
#59=EDGE_LOOP($,(#134));
#60=EDGE_LOOP($,(#135));
#61=EDGE_LOOP($,(#136));
#62=EDGE_LOOP($,(#137));
#63=EDGE_LOOP($,(#138));
#64=EDGE_LOOP($,(#139));
#65=EDGE_LOOP($,(#140));
#66=EDGE_LOOP($,(#141));
#67=EDGE_LOOP($,(#142));
#68=EDGE_LOOP($,(#143));
#69=EDGE_LOOP($,(#144));
#70=EDGE_LOOP($,(#145));
#71=EDGE_LOOP($,(#146));
#72=EDGE_LOOP($,(#147));
#73=EDGE_LOOP($,(#148));
#74=EDGE_LOOP($,(#149));
#75=EDGE_LOOP($,(#150));
#76=EDGE_LOOP($,(#151));
#77=EDGE_LOOP($,(#152));
#78=EDGE_LOOP($,(#153));
#79=EDGE_LOOP($,(#154));
#80=EDGE_LOOP($,(#155));
#81=CIRCLE($,#182,4.65);
#82=CIRCLE($,#183,7.4);
#83=CIRCLE($,#185,2.);
#84=CIRCLE($,#187,3.15);
#85=CIRCLE($,#189,3.9);
#86=CIRCLE($,#191,4.4);
#87=CIRCLE($,#193,5.2);
#88=CIRCLE($,#195,5.7);
#89=CIRCLE($,#197,6.4);
#90=CIRCLE($,#199,6.9);
#91=CIRCLE($,#201,7.74999999999999);
#92=CIRCLE($,#203,8.25);
#93=CIRCLE($,#205,11.);
#94=CIRCLE($,#207,7.4);
#95=CIRCLE($,#209,11.);
#96=VERTEX_POINT($,#275);
#97=VERTEX_POINT($,#277);
#98=VERTEX_POINT($,#280);
#99=VERTEX_POINT($,#283);
#100=VERTEX_POINT($,#286);
#101=VERTEX_POINT($,#289);
#102=VERTEX_POINT($,#292);
#103=VERTEX_POINT($,#295);
#104=VERTEX_POINT($,#298);
#105=VERTEX_POINT($,#301);
#106=VERTEX_POINT($,#304);
#107=VERTEX_POINT($,#307);
#108=VERTEX_POINT($,#310);
#109=VERTEX_POINT($,#313);
#110=VERTEX_POINT($,#316);
#111=EDGE_CURVE($,#96,#96,#81,.T.);
#112=EDGE_CURVE($,#97,#97,#82,.T.);
#113=EDGE_CURVE($,#98,#98,#83,.T.);
#114=EDGE_CURVE($,#99,#99,#84,.T.);
#115=EDGE_CURVE($,#100,#100,#85,.T.);
#116=EDGE_CURVE($,#101,#101,#86,.T.);
#117=EDGE_CURVE($,#102,#102,#87,.T.);
#118=EDGE_CURVE($,#103,#103,#88,.T.);
#119=EDGE_CURVE($,#104,#104,#89,.T.);
#120=EDGE_CURVE($,#105,#105,#90,.T.);
#121=EDGE_CURVE($,#106,#106,#91,.T.);
#122=EDGE_CURVE($,#107,#107,#92,.T.);
#123=EDGE_CURVE($,#108,#108,#93,.T.);
#124=EDGE_CURVE($,#109,#109,#94,.T.);
#125=EDGE_CURVE($,#110,#110,#95,.T.);
#126=ORIENTED_EDGE($,*,*,#111,.F.);
#127=ORIENTED_EDGE($,*,*,#112,.T.);
#128=ORIENTED_EDGE($,*,*,#113,.F.);
#129=ORIENTED_EDGE($,*,*,#111,.T.);
#130=ORIENTED_EDGE($,*,*,#114,.F.);
#131=ORIENTED_EDGE($,*,*,#113,.T.);
#132=ORIENTED_EDGE($,*,*,#115,.F.);
#133=ORIENTED_EDGE($,*,*,#114,.T.);
#134=ORIENTED_EDGE($,*,*,#116,.F.);
#135=ORIENTED_EDGE($,*,*,#115,.T.);
#136=ORIENTED_EDGE($,*,*,#117,.F.);
#137=ORIENTED_EDGE($,*,*,#116,.T.);
#138=ORIENTED_EDGE($,*,*,#118,.F.);
#139=ORIENTED_EDGE($,*,*,#117,.T.);
#140=ORIENTED_EDGE($,*,*,#119,.F.);
#141=ORIENTED_EDGE($,*,*,#118,.T.);
#142=ORIENTED_EDGE($,*,*,#120,.F.);
#143=ORIENTED_EDGE($,*,*,#119,.T.);
#144=ORIENTED_EDGE($,*,*,#121,.F.);
#145=ORIENTED_EDGE($,*,*,#120,.T.);
#146=ORIENTED_EDGE($,*,*,#122,.F.);
#147=ORIENTED_EDGE($,*,*,#121,.T.);
#148=ORIENTED_EDGE($,*,*,#123,.F.);
#149=ORIENTED_EDGE($,*,*,#122,.T.);
#150=ORIENTED_EDGE($,*,*,#112,.F.);
#151=ORIENTED_EDGE($,*,*,#124,.F.);
#152=ORIENTED_EDGE($,*,*,#123,.T.);
#153=ORIENTED_EDGE($,*,*,#125,.F.);
#154=ORIENTED_EDGE($,*,*,#124,.T.);
#155=ORIENTED_EDGE($,*,*,#125,.T.);
#156=CONICAL_SURFACE($,#181,6.025,6.93772490100127);
#157=CONICAL_SURFACE($,#184,3.325,5.73208039676347);
#158=CONICAL_SURFACE($,#188,3.525,6.48307369289724);
#159=CONICAL_SURFACE($,#192,4.8,6.91122711902468);
#160=CONICAL_SURFACE($,#196,6.05,6.05419189411483);
#161=CONICAL_SURFACE($,#200,7.32499999999999,7.33860633623615);
#162=CONICAL_SURFACE($,#204,9.625,6.93772490100127);
#163=ADVANCED_FACE($,(#37,#21),#156,.F.);
#164=ADVANCED_FACE($,(#38,#22),#157,.F.);
#165=ADVANCED_FACE($,(#39,#23),#15,.T.);
#166=ADVANCED_FACE($,(#40,#24),#158,.T.);
#167=ADVANCED_FACE($,(#41,#25),#16,.T.);
#168=ADVANCED_FACE($,(#42,#26),#159,.T.);
#169=ADVANCED_FACE($,(#43,#27),#17,.T.);
#170=ADVANCED_FACE($,(#44,#28),#160,.T.);
#171=ADVANCED_FACE($,(#45,#29),#18,.T.);
#172=ADVANCED_FACE($,(#46,#30),#161,.T.);
#173=ADVANCED_FACE($,(#47,#31),#19,.T.);
#174=ADVANCED_FACE($,(#48,#32),#162,.T.);
#175=ADVANCED_FACE($,(#49,#33),#13,.F.);
#176=ADVANCED_FACE($,(#50,#34),#14,.T.);
#177=ADVANCED_FACE($,(#35,#36),#20,.T.);
#178=CLOSED_SHELL($,(#163,#164,#165,#166,#167,#168,#169,#170,#171,#172,
#173,#174,#175,#176,#177));
#179=MANIFOLD_SOLID_BREP('Solid1',#178);
#180=AXIS2_PLACEMENT_3D('placement',#273,#211,#212);
#181=AXIS2_PLACEMENT_3D($,#274,#213,#214);
#182=AXIS2_PLACEMENT_3D($,#276,#215,#216);
#183=AXIS2_PLACEMENT_3D($,#278,#217,#218);
#184=AXIS2_PLACEMENT_3D($,#279,#219,#220);
#185=AXIS2_PLACEMENT_3D($,#281,#221,#222);
#186=AXIS2_PLACEMENT_3D($,#282,#223,#224);
#187=AXIS2_PLACEMENT_3D($,#284,#225,#226);
#188=AXIS2_PLACEMENT_3D($,#285,#227,#228);
#189=AXIS2_PLACEMENT_3D($,#287,#229,#230);
#190=AXIS2_PLACEMENT_3D($,#288,#231,#232);
#191=AXIS2_PLACEMENT_3D($,#290,#233,#234);
#192=AXIS2_PLACEMENT_3D($,#291,#235,#236);
#193=AXIS2_PLACEMENT_3D($,#293,#237,#238);
#194=AXIS2_PLACEMENT_3D($,#294,#239,#240);
#195=AXIS2_PLACEMENT_3D($,#296,#241,#242);
#196=AXIS2_PLACEMENT_3D($,#297,#243,#244);
#197=AXIS2_PLACEMENT_3D($,#299,#245,#246);
#198=AXIS2_PLACEMENT_3D($,#300,#247,#248);
#199=AXIS2_PLACEMENT_3D($,#302,#249,#250);
#200=AXIS2_PLACEMENT_3D($,#303,#251,#252);
#201=AXIS2_PLACEMENT_3D($,#305,#253,#254);
#202=AXIS2_PLACEMENT_3D($,#306,#255,#256);
#203=AXIS2_PLACEMENT_3D($,#308,#257,#258);
#204=AXIS2_PLACEMENT_3D($,#309,#259,#260);
#205=AXIS2_PLACEMENT_3D($,#311,#261,#262);
#206=AXIS2_PLACEMENT_3D($,#312,#263,#264);
#207=AXIS2_PLACEMENT_3D($,#314,#265,#266);
#208=AXIS2_PLACEMENT_3D($,#315,#267,#268);
#209=AXIS2_PLACEMENT_3D($,#317,#269,#270);
#210=AXIS2_PLACEMENT_3D($,#318,#271,#272);
#211=DIRECTION('axis',(0.,0.,1.));
#212=DIRECTION('refdir',(1.,0.,0.));
#213=DIRECTION('center_axis',(0.,0.,-1.));
#214=DIRECTION('ref_axis',(-1.,0.,0.));
#215=DIRECTION('center_axis',(0.,0.,-1.));
#216=DIRECTION('ref_axis',(-1.,0.,0.));
#217=DIRECTION('center_axis',(0.,0.,-1.));
#218=DIRECTION('ref_axis',(-1.,0.,0.));
#219=DIRECTION('center_axis',(0.,0.,-1.));
#220=DIRECTION('ref_axis',(-1.,0.,0.));
#221=DIRECTION('center_axis',(0.,0.,-1.));
#222=DIRECTION('ref_axis',(-1.,0.,0.));
#223=DIRECTION('center_axis',(0.,0.,1.));
#224=DIRECTION('ref_axis',(1.,0.,0.));
#225=DIRECTION('center_axis',(0.,0.,-1.));
#226=DIRECTION('ref_axis',(-1.,0.,0.));
#227=DIRECTION('center_axis',(0.,0.,-1.));
#228=DIRECTION('ref_axis',(-1.,0.,0.));
#229=DIRECTION('center_axis',(0.,0.,-1.));
#230=DIRECTION('ref_axis',(-1.,0.,0.));
#231=DIRECTION('center_axis',(0.,0.,1.));
#232=DIRECTION('ref_axis',(1.,0.,0.));
#233=DIRECTION('center_axis',(0.,0.,-1.));
#234=DIRECTION('ref_axis',(-1.,0.,0.));
#235=DIRECTION('center_axis',(0.,0.,-1.));
#236=DIRECTION('ref_axis',(-1.,0.,0.));
#237=DIRECTION('center_axis',(0.,0.,-1.));
#238=DIRECTION('ref_axis',(-1.,0.,0.));
#239=DIRECTION('center_axis',(0.,0.,1.));
#240=DIRECTION('ref_axis',(1.,0.,0.));
#241=DIRECTION('center_axis',(0.,0.,-1.));
#242=DIRECTION('ref_axis',(-1.,0.,0.));
#243=DIRECTION('center_axis',(0.,0.,-1.));
#244=DIRECTION('ref_axis',(-1.,0.,0.));
#245=DIRECTION('center_axis',(0.,0.,-1.));
#246=DIRECTION('ref_axis',(-1.,0.,0.));
#247=DIRECTION('center_axis',(0.,0.,1.));
#248=DIRECTION('ref_axis',(1.,0.,0.));
#249=DIRECTION('center_axis',(0.,0.,-1.));
#250=DIRECTION('ref_axis',(-1.,0.,0.));
#251=DIRECTION('center_axis',(0.,0.,-1.));
#252=DIRECTION('ref_axis',(-1.,0.,0.));
#253=DIRECTION('center_axis',(0.,0.,-1.));
#254=DIRECTION('ref_axis',(-1.,0.,0.));
#255=DIRECTION('center_axis',(0.,0.,1.));
#256=DIRECTION('ref_axis',(1.,0.,0.));
#257=DIRECTION('center_axis',(0.,0.,-1.));
#258=DIRECTION('ref_axis',(-1.,0.,0.));
#259=DIRECTION('center_axis',(0.,0.,-1.));
#260=DIRECTION('ref_axis',(-1.,0.,0.));
#261=DIRECTION('center_axis',(0.,0.,-1.));
#262=DIRECTION('ref_axis',(-1.,0.,0.));
#263=DIRECTION('center_axis',(0.,0.,1.));
#264=DIRECTION('ref_axis',(-1.,0.,0.));
#265=DIRECTION('center_axis',(0.,0.,1.));
#266=DIRECTION('ref_axis',(-1.,0.,0.));
#267=DIRECTION('center_axis',(0.,0.,1.));
#268=DIRECTION('ref_axis',(-1.,0.,0.));
#269=DIRECTION('center_axis',(0.,0.,-1.));
#270=DIRECTION('ref_axis',(-1.,0.,0.));
#271=DIRECTION('center_axis',(0.,0.,-1.));
#272=DIRECTION('ref_axis',(-1.,0.,0.));
#273=CARTESIAN_POINT('',(0.,0.,0.));
#274=CARTESIAN_POINT('Origin',(0.,0.,69.3));
#275=CARTESIAN_POINT('',(-4.65,0.,80.6));
#276=CARTESIAN_POINT('Origin',(0.,0.,80.6));
#277=CARTESIAN_POINT('',(7.4,9.06238631369041E-016,58.));
#278=CARTESIAN_POINT('Origin',(0.,0.,58.));
#279=CARTESIAN_POINT('Origin',(0.,0.,93.8));
#280=CARTESIAN_POINT('',(-2.,0.,107.));
#281=CARTESIAN_POINT('Origin',(0.,0.,107.));
#282=CARTESIAN_POINT('Origin',(-2.575,0.,107.));
#283=CARTESIAN_POINT('',(-3.15,0.,107.));
#284=CARTESIAN_POINT('Origin',(0.,0.,107.));
#285=CARTESIAN_POINT('Origin',(0.,0.,103.7));
#286=CARTESIAN_POINT('',(-3.9,0.,100.4));
#287=CARTESIAN_POINT('Origin',(0.,0.,100.4));
#288=CARTESIAN_POINT('Origin',(-4.15,0.,100.4));
#289=CARTESIAN_POINT('',(-4.4,0.,100.4));
#290=CARTESIAN_POINT('Origin',(0.,0.,100.4));
#291=CARTESIAN_POINT('Origin',(0.,0.,97.1));
#292=CARTESIAN_POINT('',(-5.2,0.,93.8));
#293=CARTESIAN_POINT('Origin',(0.,0.,93.8));
#294=CARTESIAN_POINT('Origin',(-5.45,0.,93.8));
#295=CARTESIAN_POINT('',(-5.7,0.,93.8));
#296=CARTESIAN_POINT('Origin',(0.,0.,93.8));
#297=CARTESIAN_POINT('Origin',(0.,0.,90.5));
#298=CARTESIAN_POINT('',(-6.4,0.,87.2));
#299=CARTESIAN_POINT('Origin',(0.,0.,87.2));
#300=CARTESIAN_POINT('Origin',(-6.65,0.,87.2));
#301=CARTESIAN_POINT('',(-6.9,0.,87.2));
#302=CARTESIAN_POINT('Origin',(0.,0.,87.2));
#303=CARTESIAN_POINT('Origin',(0.,0.,83.9));
#304=CARTESIAN_POINT('',(-7.74999999999999,0.,80.6));
#305=CARTESIAN_POINT('Origin',(0.,0.,80.6));
#306=CARTESIAN_POINT('Origin',(-8.,0.,80.6));
#307=CARTESIAN_POINT('',(-8.25,0.,80.6));
#308=CARTESIAN_POINT('Origin',(0.,0.,80.6));
#309=CARTESIAN_POINT('Origin',(0.,0.,69.3));
#310=CARTESIAN_POINT('',(11.,1.34711147906209E-015,58.));
#311=CARTESIAN_POINT('Origin',(0.,0.,58.));
#312=CARTESIAN_POINT('Origin',(0.,0.,0.));
#313=CARTESIAN_POINT('',(7.4,9.06238631369041E-016,0.));
#314=CARTESIAN_POINT('Origin',(0.,0.,0.));
#315=CARTESIAN_POINT('Origin',(0.,0.,0.));
#316=CARTESIAN_POINT('',(11.,1.34711147906209E-015,0.));
#317=CARTESIAN_POINT('Origin',(0.,0.,0.));
#318=CARTESIAN_POINT('Origin',(0.,0.,0.));
#319=UNCERTAINTY_MEASURE_WITH_UNIT(LENGTH_MEASURE(0.01),#321,
'DISTANCE_ACCURACY_VALUE',
'Maximum model space distance between geometric entities at asserted c
onnectivities');
#320=(
GEOMETRIC_REPRESENTATION_CONTEXT(3)
GLOBAL_UNCERTAINTY_ASSIGNED_CONTEXT((#319))
GLOBAL_UNIT_ASSIGNED_CONTEXT((#321,#324,#322))
REPRESENTATION_CONTEXT('','3D')
);
#321=(
LENGTH_UNIT()
NAMED_UNIT(*)
SI_UNIT(.MILLI.,.METRE.)
);
#322=(
NAMED_UNIT(*)
SI_UNIT($,.STERADIAN.)
SOLID_ANGLE_UNIT()
);
#323=DIMENSIONAL_EXPONENTS(0.,0.,0.,0.,0.,0.,0.);
#324=(
CONVERSION_BASED_UNIT('degree',#326)
NAMED_UNIT(#323)
PLANE_ANGLE_UNIT()
);
#325=(
NAMED_UNIT(*)
PLANE_ANGLE_UNIT()
SI_UNIT($,.RADIAN.)
);
#326=PLANE_ANGLE_MEASURE_WITH_UNIT(PLANE_ANGLE_MEASURE(0.01745329252),#325);
#327=SHAPE_DEFINITION_REPRESENTATION(#328,#329);
#328=PRODUCT_DEFINITION_SHAPE('',$,#331);
#329=SHAPE_REPRESENTATION('',(#180),#320);
#330=PRODUCT_DEFINITION_CONTEXT('3D Mechanical Parts',#334,'design');
#331=PRODUCT_DEFINITION('OMBA','OMBA',#332,#330);
#332=PRODUCT_DEFINITION_FORMATION('',$,#336);
#333=APPLICATION_PROTOCOL_DEFINITION('international standard',
'automotive_design',2009,#334);
#334=APPLICATION_CONTEXT(
'Core Data for Automotive Mechanical Design Process');
#335=PRODUCT_CONTEXT('3D Mechanical Parts',#334,'mechanical');
#336=PRODUCT('OMBA','OMBA',$,(#335));
#337=PRESENTATION_STYLE_ASSIGNMENT((#338));
#338=SURFACE_STYLE_USAGE(.BOTH.,#339);
#339=SURFACE_SIDE_STYLE($,(#340));
#340=SURFACE_STYLE_FILL_AREA(#341);
#341=FILL_AREA_STYLE($,(#342));
#342=FILL_AREA_STYLE_COLOUR($,#343);
#343=COLOUR_RGB('',0.309803921568627,0.309803921568627,0.309803921568627);
ENDSEC;
END-ISO-10303-21;
