ISO-10303-21;
HEADER;
/* Generated by software containing ST-Developer
 * from STEP Tools, Inc. (www.steptools.com) 
 */

FILE_DESCRIPTION(
/* description */ (''),
/* implementation_level */ '2;1');

FILE_NAME(
/* name */ 
'W:\\Step files som skal ligges p\X\E5 hjemmeside\\SubConn\\Circular\\
Overmould (OM)\\OMM1F.stp',
/* time_stamp */ '2016-01-28T15:39:41+01:00',
/* author */ ('sh'),
/* organization */ (''),
/* preprocessor_version */ 'ST-DEVELOPER v15.2',
/* originating_system */ 'Autodesk Inventor 2014',
/* authorisation */ '');

FILE_SCHEMA (('AUTOMOTIVE_DESIGN { 1 0 10303 214 3 1 1 }'));
ENDSEC;

DATA;
#10=SHAPE_REPRESENTATION_RELATIONSHIP('SRR','None',#197,#11);
#11=ADVANCED_BREP_SHAPE_REPRESENTATION($,(#106),#188);
#12=CONICAL_SURFACE($,#112,1.75,45.);
#13=PLANE($,#111);
#14=PLANE($,#119);
#15=PLANE($,#123);
#16=PLANE($,#124);
#17=FACE_BOUND($,#34,.T.);
#18=FACE_BOUND($,#37,.T.);
#19=FACE_BOUND($,#39,.T.);
#20=FACE_BOUND($,#41,.T.);
#21=FACE_BOUND($,#44,.T.);
#22=FACE_BOUND($,#45,.T.);
#23=FACE_BOUND($,#46,.T.);
#24=FACE_BOUND($,#47,.T.);
#25=FACE_BOUND($,#48,.T.);
#26=FACE_OUTER_BOUND($,#33,.T.);
#27=FACE_OUTER_BOUND($,#35,.T.);
#28=FACE_OUTER_BOUND($,#36,.T.);
#29=FACE_OUTER_BOUND($,#38,.T.);
#30=FACE_OUTER_BOUND($,#40,.T.);
#31=FACE_OUTER_BOUND($,#42,.T.);
#32=FACE_OUTER_BOUND($,#43,.T.);
#33=EDGE_LOOP($,(#73));
#34=EDGE_LOOP($,(#74));
#35=EDGE_LOOP($,(#75));
#36=EDGE_LOOP($,(#76));
#37=EDGE_LOOP($,(#77));
#38=EDGE_LOOP($,(#78));
#39=EDGE_LOOP($,(#79));
#40=EDGE_LOOP($,(#80));
#41=EDGE_LOOP($,(#81));
#42=EDGE_LOOP($,(#82));
#43=EDGE_LOOP($,(#83));
#44=EDGE_LOOP($,(#84));
#45=EDGE_LOOP($,(#85));
#46=EDGE_LOOP($,(#86));
#47=EDGE_LOOP($,(#87));
#48=EDGE_LOOP($,(#88));
#49=CIRCLE($,#109,1.25);
#50=CIRCLE($,#110,1.25);
#51=CIRCLE($,#113,2.25);
#52=CIRCLE($,#115,2.25);
#53=CIRCLE($,#117,2.25);
#54=CIRCLE($,#118,2.25);
#55=CIRCLE($,#121,4.);
#56=CIRCLE($,#122,4.);
#57=VERTEX_POINT($,#163);
#58=VERTEX_POINT($,#165);
#59=VERTEX_POINT($,#169);
#60=VERTEX_POINT($,#172);
#61=VERTEX_POINT($,#175);
#62=VERTEX_POINT($,#177);
#63=VERTEX_POINT($,#181);
#64=VERTEX_POINT($,#183);
#65=EDGE_CURVE($,#57,#57,#49,.T.);
#66=EDGE_CURVE($,#58,#58,#50,.T.);
#67=EDGE_CURVE($,#59,#59,#51,.T.);
#68=EDGE_CURVE($,#60,#60,#52,.T.);
#69=EDGE_CURVE($,#61,#61,#53,.T.);
#70=EDGE_CURVE($,#62,#62,#54,.T.);
#71=EDGE_CURVE($,#63,#63,#55,.T.);
#72=EDGE_CURVE($,#64,#64,#56,.T.);
#73=ORIENTED_EDGE($,*,*,#65,.T.);
#74=ORIENTED_EDGE($,*,*,#66,.F.);
#75=ORIENTED_EDGE($,*,*,#65,.F.);
#76=ORIENTED_EDGE($,*,*,#66,.T.);
#77=ORIENTED_EDGE($,*,*,#67,.T.);
#78=ORIENTED_EDGE($,*,*,#68,.F.);
#79=ORIENTED_EDGE($,*,*,#67,.F.);
#80=ORIENTED_EDGE($,*,*,#69,.F.);
#81=ORIENTED_EDGE($,*,*,#70,.F.);
#82=ORIENTED_EDGE($,*,*,#69,.T.);
#83=ORIENTED_EDGE($,*,*,#71,.T.);
#84=ORIENTED_EDGE($,*,*,#72,.F.);
#85=ORIENTED_EDGE($,*,*,#70,.T.);
#86=ORIENTED_EDGE($,*,*,#71,.F.);
#87=ORIENTED_EDGE($,*,*,#68,.T.);
#88=ORIENTED_EDGE($,*,*,#72,.T.);
#89=CYLINDRICAL_SURFACE($,#108,1.25);
#90=CYLINDRICAL_SURFACE($,#114,2.25);
#91=CYLINDRICAL_SURFACE($,#116,2.25);
#92=CYLINDRICAL_SURFACE($,#120,4.);
#93=STYLED_ITEM($,(#206),#96);
#94=STYLED_ITEM($,(#206),#97);
#95=STYLED_ITEM($,(#205),#106);
#96=ADVANCED_FACE($,(#26,#17),#89,.T.);
#97=ADVANCED_FACE($,(#27),#13,.F.);
#98=ADVANCED_FACE($,(#28,#18),#12,.T.);
#99=ADVANCED_FACE($,(#29,#19),#90,.T.);
#100=ADVANCED_FACE($,(#30,#20),#91,.F.);
#101=ADVANCED_FACE($,(#31),#14,.F.);
#102=ADVANCED_FACE($,(#32,#21),#92,.T.);
#103=ADVANCED_FACE($,(#22,#23),#15,.F.);
#104=ADVANCED_FACE($,(#24,#25),#16,.T.);
#105=CLOSED_SHELL($,(#96,#97,#98,#99,#100,#101,#102,#103,#104));
#106=MANIFOLD_SOLID_BREP('Solid2',#105);
#107=AXIS2_PLACEMENT_3D('placement',#161,#125,#126);
#108=AXIS2_PLACEMENT_3D($,#162,#127,#128);
#109=AXIS2_PLACEMENT_3D($,#164,#129,#130);
#110=AXIS2_PLACEMENT_3D($,#166,#131,#132);
#111=AXIS2_PLACEMENT_3D($,#167,#133,#134);
#112=AXIS2_PLACEMENT_3D($,#168,#135,#136);
#113=AXIS2_PLACEMENT_3D($,#170,#137,#138);
#114=AXIS2_PLACEMENT_3D($,#171,#139,#140);
#115=AXIS2_PLACEMENT_3D($,#173,#141,#142);
#116=AXIS2_PLACEMENT_3D($,#174,#143,#144);
#117=AXIS2_PLACEMENT_3D($,#176,#145,#146);
#118=AXIS2_PLACEMENT_3D($,#178,#147,#148);
#119=AXIS2_PLACEMENT_3D($,#179,#149,#150);
#120=AXIS2_PLACEMENT_3D($,#180,#151,#152);
#121=AXIS2_PLACEMENT_3D($,#182,#153,#154);
#122=AXIS2_PLACEMENT_3D($,#184,#155,#156);
#123=AXIS2_PLACEMENT_3D($,#185,#157,#158);
#124=AXIS2_PLACEMENT_3D($,#186,#159,#160);
#125=DIRECTION('axis',(0.,0.,1.));
#126=DIRECTION('refdir',(1.,0.,0.));
#127=DIRECTION('center_axis',(0.,0.,-1.));
#128=DIRECTION('ref_axis',(1.,0.,0.));
#129=DIRECTION('center_axis',(0.,0.,1.));
#130=DIRECTION('ref_axis',(1.,0.,0.));
#131=DIRECTION('center_axis',(0.,0.,1.));
#132=DIRECTION('ref_axis',(1.,0.,0.));
#133=DIRECTION('center_axis',(0.,0.,1.));
#134=DIRECTION('ref_axis',(1.,0.,0.));
#135=DIRECTION('center_axis',(0.,0.,1.));
#136=DIRECTION('ref_axis',(1.,0.,0.));
#137=DIRECTION('center_axis',(0.,0.,-1.));
#138=DIRECTION('ref_axis',(1.,0.,0.));
#139=DIRECTION('center_axis',(0.,0.,-1.));
#140=DIRECTION('ref_axis',(1.,0.,0.));
#141=DIRECTION('center_axis',(0.,0.,1.));
#142=DIRECTION('ref_axis',(1.,0.,0.));
#143=DIRECTION('center_axis',(0.,0.,-1.));
#144=DIRECTION('ref_axis',(-1.,0.,0.));
#145=DIRECTION('center_axis',(0.,0.,1.));
#146=DIRECTION('ref_axis',(-1.,0.,0.));
#147=DIRECTION('center_axis',(0.,0.,-1.));
#148=DIRECTION('ref_axis',(-1.,0.,0.));
#149=DIRECTION('center_axis',(0.,0.,-1.));
#150=DIRECTION('ref_axis',(-1.,0.,0.));
#151=DIRECTION('center_axis',(0.,0.,1.));
#152=DIRECTION('ref_axis',(-1.,0.,0.));
#153=DIRECTION('center_axis',(0.,0.,-1.));
#154=DIRECTION('ref_axis',(-1.,0.,0.));
#155=DIRECTION('center_axis',(0.,0.,-1.));
#156=DIRECTION('ref_axis',(-1.,0.,0.));
#157=DIRECTION('center_axis',(0.,0.,-1.));
#158=DIRECTION('ref_axis',(-1.,0.,0.));
#159=DIRECTION('center_axis',(0.,0.,-1.));
#160=DIRECTION('ref_axis',(-1.,0.,0.));
#161=CARTESIAN_POINT('',(0.,0.,0.));
#162=CARTESIAN_POINT('Origin',(0.,0.,-10.));
#163=CARTESIAN_POINT('',(-1.25,1.53080849893419E-016,-12.5));
#164=CARTESIAN_POINT('Origin',(0.,0.,-12.5));
#165=CARTESIAN_POINT('',(-1.25,-1.53080849893419E-016,-10.));
#166=CARTESIAN_POINT('Origin',(0.,0.,-10.));
#167=CARTESIAN_POINT('Origin',(0.,0.,-12.5));
#168=CARTESIAN_POINT('Origin',(0.,0.,-9.5));
#169=CARTESIAN_POINT('',(-2.25,2.75545529808154E-016,-9.));
#170=CARTESIAN_POINT('Origin',(0.,0.,-9.));
#171=CARTESIAN_POINT('Origin',(0.,0.,0.));
#172=CARTESIAN_POINT('',(-2.25,2.75545529808154E-016,0.));
#173=CARTESIAN_POINT('Origin',(0.,0.,0.));
#174=CARTESIAN_POINT('Origin',(0.,0.,38.));
#175=CARTESIAN_POINT('',(2.25,2.75545529808154E-016,19.5));
#176=CARTESIAN_POINT('Origin',(0.,0.,19.5));
#177=CARTESIAN_POINT('',(2.25,2.75545529808154E-016,38.));
#178=CARTESIAN_POINT('Origin',(0.,0.,38.));
#179=CARTESIAN_POINT('Origin',(0.,0.,19.5));
#180=CARTESIAN_POINT('Origin',(0.,0.,0.));
#181=CARTESIAN_POINT('',(4.,4.89858719658941E-016,38.));
#182=CARTESIAN_POINT('Origin',(0.,0.,38.));
#183=CARTESIAN_POINT('',(4.,4.89858719658941E-016,0.));
#184=CARTESIAN_POINT('Origin',(0.,0.,0.));
#185=CARTESIAN_POINT('Origin',(0.,0.,38.));
#186=CARTESIAN_POINT('Origin',(0.,0.,0.));
#187=UNCERTAINTY_MEASURE_WITH_UNIT(LENGTH_MEASURE(0.01),#189,
'DISTANCE_ACCURACY_VALUE',
'Maximum model space distance between geometric entities at asserted c
onnectivities');
#188=(
GEOMETRIC_REPRESENTATION_CONTEXT(3)
GLOBAL_UNCERTAINTY_ASSIGNED_CONTEXT((#187))
GLOBAL_UNIT_ASSIGNED_CONTEXT((#189,#192,#190))
REPRESENTATION_CONTEXT('','3D')
);
#189=(
LENGTH_UNIT()
NAMED_UNIT(*)
SI_UNIT(.MILLI.,.METRE.)
);
#190=(
NAMED_UNIT(*)
SI_UNIT($,.STERADIAN.)
SOLID_ANGLE_UNIT()
);
#191=DIMENSIONAL_EXPONENTS(0.,0.,0.,0.,0.,0.,0.);
#192=(
CONVERSION_BASED_UNIT('degree',#194)
NAMED_UNIT(#191)
PLANE_ANGLE_UNIT()
);
#193=(
NAMED_UNIT(*)
PLANE_ANGLE_UNIT()
SI_UNIT($,.RADIAN.)
);
#194=PLANE_ANGLE_MEASURE_WITH_UNIT(PLANE_ANGLE_MEASURE(0.01745329252),#193);
#195=SHAPE_DEFINITION_REPRESENTATION(#196,#197);
#196=PRODUCT_DEFINITION_SHAPE('',$,#199);
#197=SHAPE_REPRESENTATION('',(#107),#188);
#198=PRODUCT_DEFINITION_CONTEXT('3D Mechanical Parts',#202,'design');
#199=PRODUCT_DEFINITION('OMM1F','OMM1F',#200,#198);
#200=PRODUCT_DEFINITION_FORMATION('',$,#204);
#201=APPLICATION_PROTOCOL_DEFINITION('international standard',
'automotive_design',2009,#202);
#202=APPLICATION_CONTEXT(
'Core Data for Automotive Mechanical Design Process');
#203=PRODUCT_CONTEXT('3D Mechanical Parts',#202,'mechanical');
#204=PRODUCT('OMM1F','OMM1F',$,(#203));
#205=PRESENTATION_STYLE_ASSIGNMENT((#207));
#206=PRESENTATION_STYLE_ASSIGNMENT((#208));
#207=SURFACE_STYLE_USAGE(.BOTH.,#209);
#208=SURFACE_STYLE_USAGE(.BOTH.,#210);
#209=SURFACE_SIDE_STYLE($,(#211));
#210=SURFACE_SIDE_STYLE($,(#212));
#211=SURFACE_STYLE_FILL_AREA(#213);
#212=SURFACE_STYLE_FILL_AREA(#214);
#213=FILL_AREA_STYLE($,(#215));
#214=FILL_AREA_STYLE($,(#216));
#215=FILL_AREA_STYLE_COLOUR($,#217);
#216=FILL_AREA_STYLE_COLOUR($,#218);
#217=COLOUR_RGB('',0.309803921568627,0.309803921568627,0.309803921568627);
#218=COLOUR_RGB('',0.780392156862745,0.568627450980392,0.113725490196078);
ENDSEC;
END-ISO-10303-21;
